ISO-10303-21;
HEADER;
FILE_DESCRIPTION (( 'STEP AP203' ),
    '1' );
FILE_NAME ('492f.STEP',
    '2022-07-07T17:59:06',
    ( '' ),
    ( '' ),
    'SwSTEP 2.0',
    'SolidWorks 2019',
    '' );
FILE_SCHEMA (( 'CONFIG_CONTROL_DESIGN' ));
ENDSEC;

DATA;
#1 = ORIENTED_EDGE ( 'NONE', *, *, #82, .T. ) ;
#2 = CALENDAR_DATE ( 2022, 7, 7 ) ;
#3 = AXIS2_PLACEMENT_3D ( 'NONE', #98, #142, #177 ) ;
#4 = ORIENTED_EDGE ( 'NONE', *, *, #217, .T. ) ;
#5 = VERTEX_POINT ( 'NONE', #111 ) ;
#6 = EDGE_CURVE ( 'NONE', #248, #215, #164, .T. ) ;
#7 = APPROVAL_STATUS ( 'not_yet_approved' ) ;
#8 = ORIENTED_EDGE ( 'NONE', *, *, #123, .F. ) ;
#9 = EDGE_CURVE ( 'NONE', #5, #248, #222, .T. ) ;
#10 = CARTESIAN_POINT ( 'NONE',  ( 0.000000000000000000, 0.000000000000000000, 402.0000000000000000 ) ) ;
#11 = DIRECTION ( 'NONE',  ( -0.000000000000000000, -0.000000000000000000, -1.000000000000000000 ) ) ;
#12 = VERTEX_POINT ( 'NONE', #50 ) ;
#13 = DIRECTION ( 'NONE',  ( -0.000000000000000000, -0.000000000000000000, -1.000000000000000000 ) ) ;
#14 = CARTESIAN_POINT ( 'NONE',  ( 0.000000000000000000, 0.000000000000000000, 0.000000000000000000 ) ) ;
#15 = EDGE_CURVE ( 'NONE', #125, #5, #231, .T. ) ;
#16 = CARTESIAN_POINT ( 'NONE',  ( 0.000000000000000000, 0.000000000000000000, 2.000000000000000000 ) ) ;
#17 = VECTOR ( 'NONE', #115, 1000.000000000000000 ) ;
#18 = PERSON_AND_ORGANIZATION_ROLE ( 'design_supplier' ) ;
#19 = DIRECTION ( 'NONE',  ( 0.000000000000000000, 0.000000000000000000, 1.000000000000000000 ) ) ;
#20 = COORDINATED_UNIVERSAL_TIME_OFFSET ( 1, 0, .AHEAD. ) ;
#21 = APPROVAL ( #7, 'NEURÈENÝ' ) ;
#22 = ORIENTED_EDGE ( 'NONE', *, *, #126, .F. ) ;
#23 = DATE_AND_TIME ( #2, #118 ) ;
#24 = AXIS2_PLACEMENT_3D ( 'NONE', #150, #148, #205 ) ;
#25 = DIRECTION ( 'NONE',  ( 0.000000000000000000, 0.000000000000000000, 1.000000000000000000 ) ) ;
#26 = UNCERTAINTY_MEASURE_WITH_UNIT (LENGTH_MEASURE( 1.000000000000000082E-05 ), #157, 'distance_accuracy_value', 'NONE');
#27 = DATE_AND_TIME ( #90, #83 ) ;
#28 = ADVANCED_FACE ( 'NONE', ( #42 ), #62, .T. ) ;
#29 = CARTESIAN_POINT ( 'NONE',  ( -1.100000000000000089, 0.000000000000000000, 402.0000000000000000 ) ) ;
#30 = DIRECTION ( 'NONE',  ( 1.000000000000000000, 0.000000000000000000, -0.000000000000000000 ) ) ;
#31 = EDGE_CURVE ( 'NONE', #141, #144, #89, .T. ) ;
#32 = DIRECTION ( 'NONE',  ( -0.000000000000000000, -0.000000000000000000, -1.000000000000000000 ) ) ;
#33 = CALENDAR_DATE ( 2022, 7, 7 ) ;
#34 = EDGE_LOOP ( 'NONE', ( #1, #155 ) ) ;
#35 = PLANE ( 'NONE',  #137 ) ;
#36 = AXIS2_PLACEMENT_3D ( 'NONE', #191, #11, #77 ) ;
#37 =( GEOMETRIC_REPRESENTATION_CONTEXT ( 3 ) GLOBAL_UNCERTAINTY_ASSIGNED_CONTEXT ( ( #26 ) ) GLOBAL_UNIT_ASSIGNED_CONTEXT ( ( #157, #182, #133 ) ) REPRESENTATION_CONTEXT ( 'NONE', 'WORKASPACE' ) );
#38 = ADVANCED_BREP_SHAPE_REPRESENTATION ( '492f', ( #235, #24 ), #37 ) ;
#39 = APPLICATION_CONTEXT ( 'configuration controlled 3d designs of mechanical parts and assemblies' ) ;
#40 = EDGE_CURVE ( 'NONE', #12, #141, #76, .T. ) ;
#41 = AXIS2_PLACEMENT_3D ( 'NONE', #128, #19, #93 ) ;
#42 = FACE_OUTER_BOUND ( 'NONE', #163, .T. ) ;
#43 = PERSON_AND_ORGANIZATION ( #189, #74 ) ;
#44 = LOCAL_TIME ( 19, 59, 6.000000000000000000, #100 ) ;
#45 = DIRECTION ( 'NONE',  ( -0.000000000000000000, -0.000000000000000000, -1.000000000000000000 ) ) ;
#46 = APPROVAL_ROLE ( '' ) ;
#47 = VERTEX_POINT ( 'NONE', #197 ) ;
#48 = CALENDAR_DATE ( 2022, 7, 7 ) ;
#49 = VECTOR ( 'NONE', #63, 1000.000000000000000 ) ;
#50 = CARTESIAN_POINT ( 'NONE',  ( -1.100000000000000089, 0.000000000000000000, 402.0000000000000000 ) ) ;
#51 = LOCAL_TIME ( 19, 59, 6.000000000000000000, #219 ) ;
#52 = PERSON_AND_ORGANIZATION ( #189, #74 ) ;
#53 = AXIS2_PLACEMENT_3D ( 'NONE', #16, #106, #181 ) ;
#54 = CARTESIAN_POINT ( 'NONE',  ( 0.000000000000000000, 0.000000000000000000, 402.0000000000000000 ) ) ;
#55 = CC_DESIGN_PERSON_AND_ORGANIZATION_ASSIGNMENT ( #225, #110, ( #233 ) ) ;
#56 = CYLINDRICAL_SURFACE ( 'NONE', #226, 2.000000000000000000 ) ;
#57 = DIRECTION ( 'NONE',  ( -1.000000000000000000, 0.000000000000000000, 0.000000000000000000 ) ) ;
#58 = DIRECTION ( 'NONE',  ( 1.000000000000000000, 0.000000000000000000, -0.000000000000000000 ) ) ;
#59 = CC_DESIGN_PERSON_AND_ORGANIZATION_ASSIGNMENT ( #52, #18, ( #99 ) ) ;
#60 = APPROVAL_DATE_TIME ( #102, #253 ) ;
#61 = AXIS2_PLACEMENT_3D ( 'NONE', #209, #232, #58 ) ;
#62 = PLANE ( 'NONE',  #190 ) ;
#63 = DIRECTION ( 'NONE',  ( -0.000000000000000000, -0.000000000000000000, -1.000000000000000000 ) ) ;
#64 = MECHANICAL_CONTEXT ( 'NONE', #203, 'mechanical' ) ;
#65 = DIRECTION ( 'NONE',  ( 0.000000000000000000, 0.000000000000000000, 1.000000000000000000 ) ) ;
#66 = PRODUCT ( '492f', '492f', '', ( #64 ) ) ;
#67 = EDGE_LOOP ( 'NONE', ( #247, #194, #244, #146 ) ) ;
#68 = DESIGN_CONTEXT ( 'detailed design', #39, 'design' ) ;
#69 = APPLICATION_PROTOCOL_DEFINITION ( 'international standard', 'config_control_design', 1994, #39 ) ;
#70 = AXIS2_PLACEMENT_3D ( 'NONE', #165, #25, #132 ) ;
#71 = DIRECTION ( 'NONE',  ( 1.000000000000000000, 0.000000000000000000, 0.000000000000000000 ) ) ;
#72 = PERSON_AND_ORGANIZATION ( #189, #74 ) ;
#73 = CIRCLE ( 'NONE', #243, 1.100000000000000089 ) ;
#74 = ORGANIZATION ( 'NEURÈENÝ', 'NEURÈENÝ', '' ) ;
#75 = ORIENTED_EDGE ( 'NONE', *, *, #9, .T. ) ;
#76 = CIRCLE ( 'NONE', #41, 1.100000000000000089 ) ;
#77 = DIRECTION ( 'NONE',  ( -1.000000000000000000, 0.000000000000000000, 0.000000000000000000 ) ) ;
#78 = CARTESIAN_POINT ( 'NONE',  ( 1.100000000000000089, 1.347111479062088503E-16, 402.0000000000000000 ) ) ;
#79 = ORIENTED_EDGE ( 'NONE', *, *, #15, .F. ) ;
#80 = FACE_OUTER_BOUND ( 'NONE', #67, .T. ) ;
#81 = FACE_OUTER_BOUND ( 'NONE', #183, .T. ) ;
#82 = EDGE_CURVE ( 'NONE', #5, #125, #254, .T. ) ;
#83 = LOCAL_TIME ( 19, 59, 6.000000000000000000, #151 ) ;
#84 = DIRECTION ( 'NONE',  ( 0.000000000000000000, 0.000000000000000000, 1.000000000000000000 ) ) ;
#85 = FACE_OUTER_BOUND ( 'NONE', #216, .T. ) ;
#86 = AXIS2_PLACEMENT_3D ( 'NONE', #109, #13, #116 ) ;
#87 = PERSON_AND_ORGANIZATION ( #189, #74 ) ;
#88 = PRODUCT_RELATED_PRODUCT_CATEGORY ( 'detail', '', ( #66 ) ) ;
#89 = LINE ( 'NONE', #204, #221 ) ;
#90 = CALENDAR_DATE ( 2022, 7, 7 ) ;
#91 = ORIENTED_EDGE ( 'NONE', *, *, #239, .T. ) ;
#92 = DATE_TIME_ROLE ( 'classification_date' ) ;
#93 = DIRECTION ( 'NONE',  ( 1.000000000000000000, 0.000000000000000000, 0.000000000000000000 ) ) ;
#94 = COORDINATED_UNIVERSAL_TIME_OFFSET ( 1, 0, .AHEAD. ) ;
#95 = CC_DESIGN_APPROVAL ( #253, ( #236 ) ) ;
#96 = CARTESIAN_POINT ( 'NONE',  ( 2.000000000000000000, 2.449293598294706414E-16, 0.000000000000000000 ) ) ;
#97 = DIRECTION ( 'NONE',  ( -0.000000000000000000, -0.000000000000000000, -1.000000000000000000 ) ) ;
#98 = CARTESIAN_POINT ( 'NONE',  ( 0.000000000000000000, 0.000000000000000000, 2.000000000000000000 ) ) ;
#99 = PRODUCT_DEFINITION_FORMATION_WITH_SPECIFIED_SOURCE ( 'LIBOVOLNÝ', '', #66, .NOT_KNOWN. ) ;
#100 = COORDINATED_UNIVERSAL_TIME_OFFSET ( 1, 0, .AHEAD. ) ;
#101 = FACE_OUTER_BOUND ( 'NONE', #251, .T. ) ;
#102 = DATE_AND_TIME ( #33, #44 ) ;
#103 = CC_DESIGN_PERSON_AND_ORGANIZATION_ASSIGNMENT ( #43, #223, ( #66 ) ) ;
#104 = APPROVAL_PERSON_ORGANIZATION ( #127, #214, #199 ) ;
#105 = AXIS2_PLACEMENT_3D ( 'NONE', #156, #140, #255 ) ;
#106 = DIRECTION ( 'NONE',  ( 0.000000000000000000, 0.000000000000000000, 1.000000000000000000 ) ) ;
#107 = PERSON_AND_ORGANIZATION_ROLE ( 'classification_officer' ) ;
#108 = ADVANCED_FACE ( 'NONE', ( #85 ), #166, .T. ) ;
#109 = CARTESIAN_POINT ( 'NONE',  ( 0.000000000000000000, 0.000000000000000000, 2.000000000000000000 ) ) ;
#110 = PERSON_AND_ORGANIZATION_ROLE ( 'creator' ) ;
#111 = CARTESIAN_POINT ( 'NONE',  ( -2.000000000000000000, 0.000000000000000000, 2.000000000000000000 ) ) ;
#112 = APPROVAL_DATE_TIME ( #201, #214 ) ;
#113 = ORIENTED_EDGE ( 'NONE', *, *, #6, .F. ) ;
#114 = CIRCLE ( 'NONE', #153, 1.100000000000000089 ) ;
#115 = DIRECTION ( 'NONE',  ( -0.000000000000000000, -0.000000000000000000, -1.000000000000000000 ) ) ;
#116 = DIRECTION ( 'NONE',  ( -1.000000000000000000, 0.000000000000000000, 0.000000000000000000 ) ) ;
#117 = DIRECTION ( 'NONE',  ( 0.000000000000000000, 0.000000000000000000, 1.000000000000000000 ) ) ;
#118 = LOCAL_TIME ( 19, 59, 6.000000000000000000, #20 ) ;
#119 = ORIENTED_EDGE ( 'NONE', *, *, #249, .T. ) ;
#120 = DIRECTION ( 'NONE',  ( -0.000000000000000000, -0.000000000000000000, -1.000000000000000000 ) ) ;
#121 = APPROVAL_PERSON_ORGANIZATION ( #87, #253, #241 ) ;
#122 = CIRCLE ( 'NONE', #3, 1.100000000000000089 ) ;
#123 = EDGE_CURVE ( 'NONE', #125, #215, #161, .T. ) ;
#124 = AXIS2_PLACEMENT_3D ( 'NONE', #242, #84, #71 ) ;
#125 = VERTEX_POINT ( 'NONE', #234 ) ;
#126 = EDGE_CURVE ( 'NONE', #144, #47, #122, .T. ) ;
#127 = PERSON_AND_ORGANIZATION ( #189, #74 ) ;
#128 = CARTESIAN_POINT ( 'NONE',  ( 0.000000000000000000, 0.000000000000000000, 402.0000000000000000 ) ) ;
#129 = CALENDAR_DATE ( 2022, 7, 7 ) ;
#130 = EDGE_LOOP ( 'NONE', ( #160, #22 ) ) ;
#131 = PERSON_AND_ORGANIZATION ( #189, #74 ) ;
#132 = DIRECTION ( 'NONE',  ( 1.000000000000000000, 0.000000000000000000, 0.000000000000000000 ) ) ;
#133 =( NAMED_UNIT ( * ) SI_UNIT ( $, .STERADIAN. ) SOLID_ANGLE_UNIT ( ) );
#134 = CC_DESIGN_SECURITY_CLASSIFICATION ( #236, ( #99 ) ) ;
#135 = PERSON_AND_ORGANIZATION ( #189, #74 ) ;
#136 = CC_DESIGN_PERSON_AND_ORGANIZATION_ASSIGNMENT ( #131, #107, ( #236 ) ) ;
#137 = AXIS2_PLACEMENT_3D ( 'NONE', #14, #158, #30 ) ;
#138 = LINE ( 'NONE', #29, #17 ) ;
#139 = DIRECTION ( 'NONE',  ( 1.000000000000000000, 0.000000000000000000, 0.000000000000000000 ) ) ;
#140 = DIRECTION ( 'NONE',  ( 0.000000000000000000, 0.000000000000000000, 1.000000000000000000 ) ) ;
#141 = VERTEX_POINT ( 'NONE', #78 ) ;
#142 = DIRECTION ( 'NONE',  ( 0.000000000000000000, 0.000000000000000000, 1.000000000000000000 ) ) ;
#143 = CYLINDRICAL_SURFACE ( 'NONE', #193, 1.100000000000000089 ) ;
#144 = VERTEX_POINT ( 'NONE', #162 ) ;
#145 = DATE_AND_TIME ( #48, #198 ) ;
#146 = ORIENTED_EDGE ( 'NONE', *, *, #249, .F. ) ;
#147 = ADVANCED_FACE ( 'NONE', ( #173, #195 ), #252, .T. ) ;
#148 = DIRECTION ( 'NONE',  ( 0.000000000000000000, 0.000000000000000000, 1.000000000000000000 ) ) ;
#149 = ORIENTED_EDGE ( 'NONE', *, *, #123, .T. ) ;
#150 = CARTESIAN_POINT ( 'NONE',  ( 0.000000000000000000, 0.000000000000000000, 0.000000000000000000 ) ) ;
#151 = COORDINATED_UNIVERSAL_TIME_OFFSET ( 1, 0, .AHEAD. ) ;
#152 = CC_DESIGN_APPROVAL ( #214, ( #99 ) ) ;
#153 = AXIS2_PLACEMENT_3D ( 'NONE', #175, #210, #139 ) ;
#154 = ADVANCED_FACE ( 'NONE', ( #80 ), #143, .T. ) ;
#155 = ORIENTED_EDGE ( 'NONE', *, *, #15, .T. ) ;
#156 = CARTESIAN_POINT ( 'NONE',  ( 0.000000000000000000, 0.000000000000000000, 0.000000000000000000 ) ) ;
#157 =( LENGTH_UNIT ( ) NAMED_UNIT ( * ) SI_UNIT ( .MILLI., .METRE. ) );
#158 = DIRECTION ( 'NONE',  ( 0.000000000000000000, 0.000000000000000000, 1.000000000000000000 ) ) ;
#159 = ADVANCED_FACE ( 'NONE', ( #213 ), #35, .F. ) ;
#160 = ORIENTED_EDGE ( 'NONE', *, *, #217, .F. ) ;
#161 = LINE ( 'NONE', #250, #228 ) ;
#162 = CARTESIAN_POINT ( 'NONE',  ( 1.100000000000000089, 1.347111479062088503E-16, 2.000000000000000000 ) ) ;
#163 = EDGE_LOOP ( 'NONE', ( #185, #91 ) ) ;
#164 = CIRCLE ( 'NONE', #124, 2.000000000000000000 ) ;
#165 = CARTESIAN_POINT ( 'NONE',  ( 0.000000000000000000, 0.000000000000000000, 2.000000000000000000 ) ) ;
#166 = CYLINDRICAL_SURFACE ( 'NONE', #86, 2.000000000000000000 ) ;
#167 = APPROVAL_STATUS ( 'not_yet_approved' ) ;
#168 = ORIENTED_EDGE ( 'NONE', *, *, #31, .F. ) ;
#169 = PERSON_AND_ORGANIZATION_ROLE ( 'creator' ) ;
#170 = EDGE_LOOP ( 'NONE', ( #113, #220 ) ) ;
#171 = CARTESIAN_POINT ( 'NONE',  ( 0.000000000000000000, 0.000000000000000000, 402.0000000000000000 ) ) ;
#172 = DATE_TIME_ROLE ( 'creation_date' ) ;
#173 = FACE_BOUND ( 'NONE', #130, .T. ) ;
#174 = ADVANCED_FACE ( 'NONE', ( #101 ), #56, .T. ) ;
#175 = CARTESIAN_POINT ( 'NONE',  ( 0.000000000000000000, 0.000000000000000000, 2.000000000000000000 ) ) ;
#176 = ORIENTED_EDGE ( 'NONE', *, *, #40, .F. ) ;
#177 = DIRECTION ( 'NONE',  ( 1.000000000000000000, 0.000000000000000000, 0.000000000000000000 ) ) ;
#178 = CARTESIAN_POINT ( 'NONE',  ( 0.000000000000000000, 0.000000000000000000, 2.000000000000000000 ) ) ;
#179 = CC_DESIGN_PERSON_AND_ORGANIZATION_ASSIGNMENT ( #72, #169, ( #99 ) ) ;
#180 = CC_DESIGN_DATE_AND_TIME_ASSIGNMENT ( #23, #92, ( #236 ) ) ;
#181 = DIRECTION ( 'NONE',  ( 1.000000000000000000, 0.000000000000000000, 0.000000000000000000 ) ) ;
#182 =( NAMED_UNIT ( * ) PLANE_ANGLE_UNIT ( ) SI_UNIT ( $, .RADIAN. ) );
#183 = EDGE_LOOP ( 'NONE', ( #168, #176, #119, #4 ) ) ;
#184 = EDGE_CURVE ( 'NONE', #215, #248, #208, .T. ) ;
#185 = ORIENTED_EDGE ( 'NONE', *, *, #40, .T. ) ;
#186 = SECURITY_CLASSIFICATION_LEVEL ( 'unclassified' ) ;
#187 = CARTESIAN_POINT ( 'NONE',  ( -2.000000000000000000, 0.000000000000000000, 2.000000000000000000 ) ) ;
#188 = APPROVAL_DATE_TIME ( #27, #21 ) ;
#189 = PERSON ( 'NEURÈENÝ', 'NEURÈENÝ', 'NEURÈENÝ', ('NEURÈENÝ'), ('NEURÈENÝ'), ('NEURÈENÝ') ) ;
#190 = AXIS2_PLACEMENT_3D ( 'NONE', #171, #65, #237 ) ;
#191 = CARTESIAN_POINT ( 'NONE',  ( 0.000000000000000000, 0.000000000000000000, 402.0000000000000000 ) ) ;
#192 = DIRECTION ( 'NONE',  ( 1.000000000000000000, 0.000000000000000000, 0.000000000000000000 ) ) ;
#193 = AXIS2_PLACEMENT_3D ( 'NONE', #54, #120, #57 ) ;
#194 = ORIENTED_EDGE ( 'NONE', *, *, #31, .T. ) ;
#195 = FACE_OUTER_BOUND ( 'NONE', #34, .T. ) ;
#196 = ADVANCED_FACE ( 'NONE', ( #81 ), #207, .T. ) ;
#197 = CARTESIAN_POINT ( 'NONE',  ( -1.100000000000000089, 0.000000000000000000, 2.000000000000000000 ) ) ;
#198 = LOCAL_TIME ( 19, 59, 6.000000000000000000, #94 ) ;
#199 = APPROVAL_ROLE ( '' ) ;
#200 = ORIENTED_EDGE ( 'NONE', *, *, #6, .T. ) ;
#201 = DATE_AND_TIME ( #129, #51 ) ;
#202 = ORIENTED_EDGE ( 'NONE', *, *, #82, .F. ) ;
#203 = APPLICATION_CONTEXT ( 'configuration controlled 3d designs of mechanical parts and assemblies' ) ;
#204 = CARTESIAN_POINT ( 'NONE',  ( 1.100000000000000089, 1.347111479062088503E-16, 402.0000000000000000 ) ) ;
#205 = DIRECTION ( 'NONE',  ( 1.000000000000000000, 0.000000000000000000, 0.000000000000000000 ) ) ;
#206 = APPROVAL_STATUS ( 'not_yet_approved' ) ;
#207 = CYLINDRICAL_SURFACE ( 'NONE', #36, 1.100000000000000089 ) ;
#208 = CIRCLE ( 'NONE', #105, 2.000000000000000000 ) ;
#209 = CARTESIAN_POINT ( 'NONE',  ( 0.000000000000000000, 0.000000000000000000, 2.000000000000000000 ) ) ;
#210 = DIRECTION ( 'NONE',  ( 0.000000000000000000, 0.000000000000000000, 1.000000000000000000 ) ) ;
#211 = SHAPE_DEFINITION_REPRESENTATION ( #218, #38 ) ;
#212 = ORIENTED_EDGE ( 'NONE', *, *, #9, .F. ) ;
#213 = FACE_OUTER_BOUND ( 'NONE', #170, .T. ) ;
#214 = APPROVAL ( #206, 'NEURÈENÝ' ) ;
#215 = VERTEX_POINT ( 'NONE', #96 ) ;
#216 = EDGE_LOOP ( 'NONE', ( #8, #202, #75, #200 ) ) ;
#217 = EDGE_CURVE ( 'NONE', #47, #144, #114, .T. ) ;
#218 = PRODUCT_DEFINITION_SHAPE ( 'NONE', 'NONE',  #233 ) ;
#219 = COORDINATED_UNIVERSAL_TIME_OFFSET ( 1, 0, .AHEAD. ) ;
#220 = ORIENTED_EDGE ( 'NONE', *, *, #184, .F. ) ;
#221 = VECTOR ( 'NONE', #45, 1000.000000000000000 ) ;
#222 = LINE ( 'NONE', #187, #49 ) ;
#223 = PERSON_AND_ORGANIZATION_ROLE ( 'design_owner' ) ;
#224 = APPROVAL_PERSON_ORGANIZATION ( #135, #21, #46 ) ;
#225 = PERSON_AND_ORGANIZATION ( #189, #74 ) ;
#226 = AXIS2_PLACEMENT_3D ( 'NONE', #178, #97, #230 ) ;
#227 = CC_DESIGN_APPROVAL ( #21, ( #233 ) ) ;
#228 = VECTOR ( 'NONE', #32, 1000.000000000000000 ) ;
#229 = CARTESIAN_POINT ( 'NONE',  ( -2.000000000000000000, 0.000000000000000000, 0.000000000000000000 ) ) ;
#230 = DIRECTION ( 'NONE',  ( -1.000000000000000000, 0.000000000000000000, 0.000000000000000000 ) ) ;
#231 = CIRCLE ( 'NONE', #70, 2.000000000000000000 ) ;
#232 = DIRECTION ( 'NONE',  ( 0.000000000000000000, 0.000000000000000000, 1.000000000000000000 ) ) ;
#233 = PRODUCT_DEFINITION ( 'NEZNÁMÝ', '', #99, #68 ) ;
#234 = CARTESIAN_POINT ( 'NONE',  ( 2.000000000000000000, 2.449293598294706414E-16, 2.000000000000000000 ) ) ;
#235 = MANIFOLD_SOLID_BREP ( 'Pøidat vysunutím3', #238 ) ;
#236 = SECURITY_CLASSIFICATION ( '', '', #186 ) ;
#237 = DIRECTION ( 'NONE',  ( 1.000000000000000000, 0.000000000000000000, -0.000000000000000000 ) ) ;
#238 = CLOSED_SHELL ( 'NONE', ( #154, #174, #108, #147, #159, #196, #28 ) ) ;
#239 = EDGE_CURVE ( 'NONE', #141, #12, #73, .T. ) ;
#240 = ORIENTED_EDGE ( 'NONE', *, *, #184, .T. ) ;
#241 = APPROVAL_ROLE ( '' ) ;
#242 = CARTESIAN_POINT ( 'NONE',  ( 0.000000000000000000, 0.000000000000000000, 0.000000000000000000 ) ) ;
#243 = AXIS2_PLACEMENT_3D ( 'NONE', #10, #117, #192 ) ;
#244 = ORIENTED_EDGE ( 'NONE', *, *, #126, .T. ) ;
#245 = CC_DESIGN_DATE_AND_TIME_ASSIGNMENT ( #145, #172, ( #233 ) ) ;
#246 = APPLICATION_PROTOCOL_DEFINITION ( 'international standard', 'config_control_design', 1994, #203 ) ;
#247 = ORIENTED_EDGE ( 'NONE', *, *, #239, .F. ) ;
#248 = VERTEX_POINT ( 'NONE', #229 ) ;
#249 = EDGE_CURVE ( 'NONE', #12, #47, #138, .T. ) ;
#250 = CARTESIAN_POINT ( 'NONE',  ( 2.000000000000000000, 2.449293598294706414E-16, 2.000000000000000000 ) ) ;
#251 = EDGE_LOOP ( 'NONE', ( #79, #149, #240, #212 ) ) ;
#252 = PLANE ( 'NONE',  #61 ) ;
#253 = APPROVAL ( #167, 'NEURÈENÝ' ) ;
#254 = CIRCLE ( 'NONE', #53, 2.000000000000000000 ) ;
#255 = DIRECTION ( 'NONE',  ( 1.000000000000000000, 0.000000000000000000, 0.000000000000000000 ) ) ;
ENDSEC;
END-ISO-10303-21;
