ISO-10303-21;
HEADER;
FILE_DESCRIPTION (( 'STEP AP203' ),
    '1' );
FILE_NAME ('2131.STEP',
    '2022-07-07T17:37:43',
    ( '' ),
    ( '' ),
    'SwSTEP 2.0',
    'SolidWorks 2019',
    '' );
FILE_SCHEMA (( 'CONFIG_CONTROL_DESIGN' ));
ENDSEC;

DATA;
#1 = AXIS2_PLACEMENT_3D ( 'NONE', #174, #82, #81 ) ;
#2 = CARTESIAN_POINT ( 'NONE',  ( 0.000000000000000000, 0.000000000000000000, 5.000000000000000000 ) ) ;
#3 = CARTESIAN_POINT ( 'NONE',  ( 0.000000000000000000, 0.000000000000000000, 0.000000000000000000 ) ) ;
#4 = FACE_OUTER_BOUND ( 'NONE', #199, .T. ) ;
#5 = CARTESIAN_POINT ( 'NONE',  ( 3.250000000000000444, 3.980102097228898231E-16, 5.000000000000000000 ) ) ;
#6 = DIRECTION ( 'NONE',  ( 0.000000000000000000, 0.000000000000000000, 1.000000000000000000 ) ) ;
#7 = CARTESIAN_POINT ( 'NONE',  ( -6.000000000000000888, 0.000000000000000000, 0.000000000000000000 ) ) ;
#8 = APPROVAL_ROLE ( '' ) ;
#9 = VERTEX_POINT ( 'NONE', #17 ) ;
#10 = COORDINATED_UNIVERSAL_TIME_OFFSET ( 1, 0, .AHEAD. ) ;
#11 = ORIENTED_EDGE ( 'NONE', *, *, #80, .F. ) ;
#12 = AXIS2_PLACEMENT_3D ( 'NONE', #201, #73, #208 ) ;
#13 = DATE_TIME_ROLE ( 'classification_date' ) ;
#14 = ORIENTED_EDGE ( 'NONE', *, *, #126, .F. ) ;
#15 = CARTESIAN_POINT ( 'NONE',  ( 0.000000000000000000, 0.000000000000000000, 130.0000000000000000 ) ) ;
#16 = APPROVAL ( #188, 'NEURÈENÝ' ) ;
#17 = CARTESIAN_POINT ( 'NONE',  ( 3.250000000000000444, 3.980102097228898231E-16, 130.0000000000000000 ) ) ;
#18 = CARTESIAN_POINT ( 'NONE',  ( 6.000000000000000888, 7.347880794884120722E-16, 0.000000000000000000 ) ) ;
#19 = APPROVAL ( #143, 'NEURÈENÝ' ) ;
#20 = CARTESIAN_POINT ( 'NONE',  ( -3.250000000000000444, 0.000000000000000000, 5.000000000000000000 ) ) ;
#21 = EDGE_CURVE ( 'NONE', #9, #68, #70, .T. ) ;
#22 = LINE ( 'NONE', #115, #88 ) ;
#23 = DIRECTION ( 'NONE',  ( 0.000000000000000000, 0.000000000000000000, 1.000000000000000000 ) ) ;
#24 = LOCAL_TIME ( 19, 37, 43.00000000000000000, #84 ) ;
#25 = FACE_OUTER_BOUND ( 'NONE', #144, .T. ) ;
#26 = DIRECTION ( 'NONE',  ( 1.000000000000000000, 0.000000000000000000, 0.000000000000000000 ) ) ;
#27 = VERTEX_POINT ( 'NONE', #122 ) ;
#28 = PERSON_AND_ORGANIZATION ( #157, #152 ) ;
#29 = PERSON_AND_ORGANIZATION ( #157, #152 ) ;
#30 = ORIENTED_EDGE ( 'NONE', *, *, #21, .F. ) ;
#31 = SHAPE_DEFINITION_REPRESENTATION ( #215, #169 ) ;
#32 = APPLICATION_PROTOCOL_DEFINITION ( 'international standard', 'config_control_design', 1994, #39 ) ;
#33 = ORIENTED_EDGE ( 'NONE', *, *, #86, .T. ) ;
#34 = EDGE_CURVE ( 'NONE', #224, #202, #45, .T. ) ;
#35 = ORIENTED_EDGE ( 'NONE', *, *, #110, .T. ) ;
#36 = DATE_TIME_ROLE ( 'creation_date' ) ;
#37 = AXIS2_PLACEMENT_3D ( 'NONE', #3, #43, #153 ) ;
#38 = CC_DESIGN_APPROVAL ( #168, ( #234 ) ) ;
#39 = APPLICATION_CONTEXT ( 'configuration controlled 3d designs of mechanical parts and assemblies' ) ;
#40 = EDGE_CURVE ( 'NONE', #9, #27, #207, .T. ) ;
#41 = DIRECTION ( 'NONE',  ( -1.000000000000000000, 0.000000000000000000, 0.000000000000000000 ) ) ;
#42 = CARTESIAN_POINT ( 'NONE',  ( 0.000000000000000000, 0.000000000000000000, 0.000000000000000000 ) ) ;
#43 = DIRECTION ( 'NONE',  ( 0.000000000000000000, 0.000000000000000000, 1.000000000000000000 ) ) ;
#44 = CARTESIAN_POINT ( 'NONE',  ( 0.000000000000000000, 0.000000000000000000, 5.000000000000000000 ) ) ;
#45 = CIRCLE ( 'NONE', #160, 6.000000000000000888 ) ;
#46 = CARTESIAN_POINT ( 'NONE',  ( 0.000000000000000000, 0.000000000000000000, 130.0000000000000000 ) ) ;
#47 = SECURITY_CLASSIFICATION_LEVEL ( 'unclassified' ) ;
#48 = APPROVAL_DATE_TIME ( #179, #16 ) ;
#49 = ORIENTED_EDGE ( 'NONE', *, *, #34, .F. ) ;
#50 = VERTEX_POINT ( 'NONE', #7 ) ;
#51 = ADVANCED_FACE ( 'NONE', ( #136 ), #220, .T. ) ;
#52 =( NAMED_UNIT ( * ) PLANE_ANGLE_UNIT ( ) SI_UNIT ( $, .RADIAN. ) );
#53 = ORIENTED_EDGE ( 'NONE', *, *, #21, .T. ) ;
#54 = APPROVAL_PERSON_ORGANIZATION ( #29, #19, #8 ) ;
#55 = APPROVAL_DATE_TIME ( #247, #19 ) ;
#56 = UNCERTAINTY_MEASURE_WITH_UNIT (LENGTH_MEASURE( 1.000000000000000082E-05 ), #205, 'distance_accuracy_value', 'NONE');
#57 = CC_DESIGN_PERSON_AND_ORGANIZATION_ASSIGNMENT ( #71, #228, ( #60 ) ) ;
#58 = MANIFOLD_SOLID_BREP ( 'Pøidat vysunutím3', #79 ) ;
#59 = CIRCLE ( 'NONE', #190, 6.000000000000000888 ) ;
#60 = PRODUCT_DEFINITION ( 'NEZNÁMÝ', '', #251, #175 ) ;
#61 = CARTESIAN_POINT ( 'NONE',  ( -6.000000000000000888, 0.000000000000000000, 5.000000000000000000 ) ) ;
#62 = FACE_BOUND ( 'NONE', #178, .T. ) ;
#63 = DIRECTION ( 'NONE',  ( -0.000000000000000000, -0.000000000000000000, -1.000000000000000000 ) ) ;
#64 = LINE ( 'NONE', #76, #138 ) ;
#65 = DIRECTION ( 'NONE',  ( 1.000000000000000000, 0.000000000000000000, 0.000000000000000000 ) ) ;
#66 = COORDINATED_UNIVERSAL_TIME_OFFSET ( 1, 0, .AHEAD. ) ;
#67 = AXIS2_PLACEMENT_3D ( 'NONE', #240, #23, #151 ) ;
#68 = VERTEX_POINT ( 'NONE', #5 ) ;
#69 = PRODUCT_RELATED_PRODUCT_CATEGORY ( 'detail', '', ( #227 ) ) ;
#70 = LINE ( 'NONE', #142, #170 ) ;
#71 = PERSON_AND_ORGANIZATION ( #157, #152 ) ;
#72 = EDGE_LOOP ( 'NONE', ( #83, #246 ) ) ;
#73 = DIRECTION ( 'NONE',  ( 0.000000000000000000, 0.000000000000000000, 1.000000000000000000 ) ) ;
#74 = ADVANCED_FACE ( 'NONE', ( #196 ), #113, .F. ) ;
#75 = VECTOR ( 'NONE', #241, 1000.000000000000000 ) ;
#76 = CARTESIAN_POINT ( 'NONE',  ( -3.250000000000000444, 0.000000000000000000, 130.0000000000000000 ) ) ;
#77 = DIRECTION ( 'NONE',  ( 1.000000000000000000, 0.000000000000000000, 0.000000000000000000 ) ) ;
#78 = PLANE ( 'NONE',  #245 ) ;
#79 = CLOSED_SHELL ( 'NONE', ( #51, #129, #145, #193, #74, #149, #114 ) ) ;
#80 = EDGE_CURVE ( 'NONE', #202, #50, #22, .T. ) ;
#81 = DIRECTION ( 'NONE',  ( 1.000000000000000000, 0.000000000000000000, -0.000000000000000000 ) ) ;
#82 = DIRECTION ( 'NONE',  ( 0.000000000000000000, 0.000000000000000000, 1.000000000000000000 ) ) ;
#83 = ORIENTED_EDGE ( 'NONE', *, *, #238, .F. ) ;
#84 = COORDINATED_UNIVERSAL_TIME_OFFSET ( 1, 0, .AHEAD. ) ;
#85 = ORIENTED_EDGE ( 'NONE', *, *, #238, .T. ) ;
#86 = EDGE_CURVE ( 'NONE', #242, #50, #182, .T. ) ;
#87 = CALENDAR_DATE ( 2022, 7, 7 ) ;
#88 = VECTOR ( 'NONE', #172, 1000.000000000000000 ) ;
#89 = ORIENTED_EDGE ( 'NONE', *, *, #223, .F. ) ;
#90 = CALENDAR_DATE ( 2022, 7, 7 ) ;
#91 = CARTESIAN_POINT ( 'NONE',  ( 0.000000000000000000, 0.000000000000000000, 130.0000000000000000 ) ) ;
#92 = DIRECTION ( 'NONE',  ( 0.000000000000000000, 0.000000000000000000, 1.000000000000000000 ) ) ;
#93 = ORIENTED_EDGE ( 'NONE', *, *, #243, .F. ) ;
#94 = AXIS2_PLACEMENT_3D ( 'NONE', #44, #63, #197 ) ;
#95 = AXIS2_PLACEMENT_3D ( 'NONE', #91, #250, #65 ) ;
#96 = AXIS2_PLACEMENT_3D ( 'NONE', #42, #119, #26 ) ;
#97 = DIRECTION ( 'NONE',  ( -0.000000000000000000, -0.000000000000000000, -1.000000000000000000 ) ) ;
#98 = FACE_OUTER_BOUND ( 'NONE', #158, .T. ) ;
#99 = CC_DESIGN_PERSON_AND_ORGANIZATION_ASSIGNMENT ( #177, #230, ( #227 ) ) ;
#100 = PLANE ( 'NONE',  #1 ) ;
#101 = LOCAL_TIME ( 19, 37, 43.00000000000000000, #10 ) ;
#102 = DIRECTION ( 'NONE',  ( -0.000000000000000000, -0.000000000000000000, -1.000000000000000000 ) ) ;
#103 = ORIENTED_EDGE ( 'NONE', *, *, #255, .T. ) ;
#104 = APPROVAL_ROLE ( '' ) ;
#105 = ORIENTED_EDGE ( 'NONE', *, *, #191, .F. ) ;
#106 = CARTESIAN_POINT ( 'NONE',  ( 0.000000000000000000, 0.000000000000000000, 5.000000000000000000 ) ) ;
#107 = EDGE_LOOP ( 'NONE', ( #105, #125, #248, #85 ) ) ;
#108 = PERSON_AND_ORGANIZATION ( #157, #152 ) ;
#109 = AXIS2_PLACEMENT_3D ( 'NONE', #132, #214, #133 ) ;
#110 = EDGE_CURVE ( 'NONE', #202, #224, #59, .T. ) ;
#111 = DIRECTION ( 'NONE',  ( -0.000000000000000000, -0.000000000000000000, -1.000000000000000000 ) ) ;
#112 = CIRCLE ( 'NONE', #128, 3.250000000000000444 ) ;
#113 = PLANE ( 'NONE',  #37 ) ;
#114 = ADVANCED_FACE ( 'NONE', ( #98 ), #100, .T. ) ;
#115 = CARTESIAN_POINT ( 'NONE',  ( -6.000000000000000888, 0.000000000000000000, 5.000000000000000000 ) ) ;
#116 = FACE_OUTER_BOUND ( 'NONE', #206, .T. ) ;
#117 = ORIENTED_EDGE ( 'NONE', *, *, #191, .T. ) ;
#118 = DATE_AND_TIME ( #166, #162 ) ;
#119 = DIRECTION ( 'NONE',  ( 0.000000000000000000, 0.000000000000000000, 1.000000000000000000 ) ) ;
#120 = ORIENTED_EDGE ( 'NONE', *, *, #223, .T. ) ;
#121 = PERSON_AND_ORGANIZATION ( #157, #152 ) ;
#122 = CARTESIAN_POINT ( 'NONE',  ( -3.250000000000000444, 0.000000000000000000, 130.0000000000000000 ) ) ;
#123 = APPROVAL_STATUS ( 'not_yet_approved' ) ;
#124 = DIRECTION ( 'NONE',  ( 0.000000000000000000, 0.000000000000000000, 1.000000000000000000 ) ) ;
#125 = ORIENTED_EDGE ( 'NONE', *, *, #110, .F. ) ;
#126 = EDGE_CURVE ( 'NONE', #27, #165, #64, .T. ) ;
#127 = DIRECTION ( 'NONE',  ( 1.000000000000000000, 0.000000000000000000, 0.000000000000000000 ) ) ;
#128 = AXIS2_PLACEMENT_3D ( 'NONE', #15, #92, #127 ) ;
#129 = ADVANCED_FACE ( 'NONE', ( #116 ), #150, .T. ) ;
#130 = APPROVAL_PERSON_ORGANIZATION ( #108, #16, #104 ) ;
#131 = AXIS2_PLACEMENT_3D ( 'NONE', #217, #102, #195 ) ;
#132 = CARTESIAN_POINT ( 'NONE',  ( 0.000000000000000000, 0.000000000000000000, 5.000000000000000000 ) ) ;
#133 = DIRECTION ( 'NONE',  ( 1.000000000000000000, 0.000000000000000000, 0.000000000000000000 ) ) ;
#134 = CARTESIAN_POINT ( 'NONE',  ( 0.000000000000000000, 0.000000000000000000, 5.000000000000000000 ) ) ;
#135 = CYLINDRICAL_SURFACE ( 'NONE', #94, 6.000000000000000888 ) ;
#136 = FACE_OUTER_BOUND ( 'NONE', #180, .T. ) ;
#137 = DATE_AND_TIME ( #210, #254 ) ;
#138 = VECTOR ( 'NONE', #111, 1000.000000000000000 ) ;
#139 = CALENDAR_DATE ( 2022, 7, 7 ) ;
#140 = CC_DESIGN_SECURITY_CLASSIFICATION ( #234, ( #251 ) ) ;
#141 = ORIENTED_EDGE ( 'NONE', *, *, #243, .T. ) ;
#142 = CARTESIAN_POINT ( 'NONE',  ( 3.250000000000000444, 3.980102097228898231E-16, 130.0000000000000000 ) ) ;
#143 = APPROVAL_STATUS ( 'not_yet_approved' ) ;
#144 = EDGE_LOOP ( 'NONE', ( #30, #93, #226, #103 ) ) ;
#145 = ADVANCED_FACE ( 'NONE', ( #239 ), #135, .T. ) ;
#146 = CC_DESIGN_DATE_AND_TIME_ASSIGNMENT ( #137, #13, ( #234 ) ) ;
#147 = AXIS2_PLACEMENT_3D ( 'NONE', #154, #236, #219 ) ;
#148 = DIRECTION ( 'NONE',  ( 0.000000000000000000, 0.000000000000000000, 1.000000000000000000 ) ) ;
#149 = ADVANCED_FACE ( 'NONE', ( #25 ), #194, .T. ) ;
#150 = CYLINDRICAL_SURFACE ( 'NONE', #147, 6.000000000000000888 ) ;
#151 = DIRECTION ( 'NONE',  ( 1.000000000000000000, 0.000000000000000000, 0.000000000000000000 ) ) ;
#152 = ORGANIZATION ( 'NEURÈENÝ', 'NEURÈENÝ', '' ) ;
#153 = DIRECTION ( 'NONE',  ( 1.000000000000000000, 0.000000000000000000, -0.000000000000000000 ) ) ;
#154 = CARTESIAN_POINT ( 'NONE',  ( 0.000000000000000000, 0.000000000000000000, 5.000000000000000000 ) ) ;
#155 = ORIENTED_EDGE ( 'NONE', *, *, #40, .F. ) ;
#156 = APPLICATION_PROTOCOL_DEFINITION ( 'international standard', 'config_control_design', 1994, #189 ) ;
#157 = PERSON ( 'NEURÈENÝ', 'NEURÈENÝ', 'NEURÈENÝ', ('NEURÈENÝ'), ('NEURÈENÝ'), ('NEURÈENÝ') ) ;
#158 = EDGE_LOOP ( 'NONE', ( #141, #209 ) ) ;
#159 = APPROVAL_DATE_TIME ( #118, #168 ) ;
#160 = AXIS2_PLACEMENT_3D ( 'NONE', #106, #184, #187 ) ;
#161 = DIRECTION ( 'NONE',  ( 1.000000000000000000, 0.000000000000000000, 0.000000000000000000 ) ) ;
#162 = LOCAL_TIME ( 19, 37, 43.00000000000000000, #231 ) ;
#163 = ORIENTED_EDGE ( 'NONE', *, *, #255, .F. ) ;
#164 = CC_DESIGN_PERSON_AND_ORGANIZATION_ASSIGNMENT ( #28, #249, ( #234 ) ) ;
#165 = VERTEX_POINT ( 'NONE', #20 ) ;
#166 = CALENDAR_DATE ( 2022, 7, 7 ) ;
#167 = AXIS2_PLACEMENT_3D ( 'NONE', #225, #124, #161 ) ;
#168 = APPROVAL ( #123, 'NEURÈENÝ' ) ;
#169 = ADVANCED_BREP_SHAPE_REPRESENTATION ( '2131', ( #58, #12 ), #213 ) ;
#170 = VECTOR ( 'NONE', #229, 1000.000000000000000 ) ;
#171 = CC_DESIGN_DATE_AND_TIME_ASSIGNMENT ( #211, #36, ( #60 ) ) ;
#172 = DIRECTION ( 'NONE',  ( -0.000000000000000000, -0.000000000000000000, -1.000000000000000000 ) ) ;
#173 = CARTESIAN_POINT ( 'NONE',  ( 6.000000000000000888, 7.347880794884120722E-16, 5.000000000000000000 ) ) ;
#174 = CARTESIAN_POINT ( 'NONE',  ( 0.000000000000000000, 0.000000000000000000, 130.0000000000000000 ) ) ;
#175 = DESIGN_CONTEXT ( 'detailed design', #189, 'design' ) ;
#176 = LINE ( 'NONE', #173, #75 ) ;
#177 = PERSON_AND_ORGANIZATION ( #157, #152 ) ;
#178 = EDGE_LOOP ( 'NONE', ( #163, #89 ) ) ;
#179 = DATE_AND_TIME ( #139, #24 ) ;
#180 = EDGE_LOOP ( 'NONE', ( #155, #53, #120, #14 ) ) ;
#181 = PERSON_AND_ORGANIZATION_ROLE ( 'design_supplier' ) ;
#182 = CIRCLE ( 'NONE', #67, 6.000000000000000888 ) ;
#183 = MECHANICAL_CONTEXT ( 'NONE', #39, 'mechanical' ) ;
#184 = DIRECTION ( 'NONE',  ( 0.000000000000000000, 0.000000000000000000, 1.000000000000000000 ) ) ;
#185 = PERSON_AND_ORGANIZATION ( #157, #152 ) ;
#186 =( NAMED_UNIT ( * ) SI_UNIT ( $, .STERADIAN. ) SOLID_ANGLE_UNIT ( ) );
#187 = DIRECTION ( 'NONE',  ( 1.000000000000000000, 0.000000000000000000, 0.000000000000000000 ) ) ;
#188 = APPROVAL_STATUS ( 'not_yet_approved' ) ;
#189 = APPLICATION_CONTEXT ( 'configuration controlled 3d designs of mechanical parts and assemblies' ) ;
#190 = AXIS2_PLACEMENT_3D ( 'NONE', #134, #6, #77 ) ;
#191 = EDGE_CURVE ( 'NONE', #224, #242, #176, .T. ) ;
#192 = CC_DESIGN_APPROVAL ( #19, ( #60 ) ) ;
#193 = ADVANCED_FACE ( 'NONE', ( #62, #4 ), #78, .T. ) ;
#194 = CYLINDRICAL_SURFACE ( 'NONE', #131, 3.250000000000000444 ) ;
#195 = DIRECTION ( 'NONE',  ( -1.000000000000000000, 0.000000000000000000, 0.000000000000000000 ) ) ;
#196 = FACE_OUTER_BOUND ( 'NONE', #72, .T. ) ;
#197 = DIRECTION ( 'NONE',  ( -1.000000000000000000, 0.000000000000000000, 0.000000000000000000 ) ) ;
#198 = CC_DESIGN_APPROVAL ( #16, ( #251 ) ) ;
#199 = EDGE_LOOP ( 'NONE', ( #35, #244 ) ) ;
#200 = PERSON_AND_ORGANIZATION_ROLE ( 'creator' ) ;
#201 = CARTESIAN_POINT ( 'NONE',  ( 0.000000000000000000, 0.000000000000000000, 0.000000000000000000 ) ) ;
#202 = VERTEX_POINT ( 'NONE', #61 ) ;
#203 = CC_DESIGN_PERSON_AND_ORGANIZATION_ASSIGNMENT ( #204, #181, ( #251 ) ) ;
#204 = PERSON_AND_ORGANIZATION ( #157, #152 ) ;
#205 =( LENGTH_UNIT ( ) NAMED_UNIT ( * ) SI_UNIT ( .MILLI., .METRE. ) );
#206 = EDGE_LOOP ( 'NONE', ( #49, #117, #33, #11 ) ) ;
#207 = CIRCLE ( 'NONE', #95, 3.250000000000000444 ) ;
#208 = DIRECTION ( 'NONE',  ( 1.000000000000000000, 0.000000000000000000, 0.000000000000000000 ) ) ;
#209 = ORIENTED_EDGE ( 'NONE', *, *, #40, .T. ) ;
#210 = CALENDAR_DATE ( 2022, 7, 7 ) ;
#211 = DATE_AND_TIME ( #87, #253 ) ;
#212 = CIRCLE ( 'NONE', #96, 6.000000000000000888 ) ;
#213 =( GEOMETRIC_REPRESENTATION_CONTEXT ( 3 ) GLOBAL_UNCERTAINTY_ASSIGNED_CONTEXT ( ( #56 ) ) GLOBAL_UNIT_ASSIGNED_CONTEXT ( ( #205, #52, #186 ) ) REPRESENTATION_CONTEXT ( 'NONE', 'WORKASPACE' ) );
#214 = DIRECTION ( 'NONE',  ( 0.000000000000000000, 0.000000000000000000, 1.000000000000000000 ) ) ;
#215 = PRODUCT_DEFINITION_SHAPE ( 'NONE', 'NONE',  #60 ) ;
#216 = CARTESIAN_POINT ( 'NONE',  ( 6.000000000000000888, 7.347880794884120722E-16, 5.000000000000000000 ) ) ;
#217 = CARTESIAN_POINT ( 'NONE',  ( 0.000000000000000000, 0.000000000000000000, 130.0000000000000000 ) ) ;
#218 = CC_DESIGN_PERSON_AND_ORGANIZATION_ASSIGNMENT ( #185, #200, ( #251 ) ) ;
#219 = DIRECTION ( 'NONE',  ( -1.000000000000000000, 0.000000000000000000, 0.000000000000000000 ) ) ;
#220 = CYLINDRICAL_SURFACE ( 'NONE', #232, 3.250000000000000444 ) ;
#221 = CIRCLE ( 'NONE', #109, 3.250000000000000444 ) ;
#222 = APPROVAL_ROLE ( '' ) ;
#223 = EDGE_CURVE ( 'NONE', #68, #165, #221, .T. ) ;
#224 = VERTEX_POINT ( 'NONE', #216 ) ;
#225 = CARTESIAN_POINT ( 'NONE',  ( 0.000000000000000000, 0.000000000000000000, 5.000000000000000000 ) ) ;
#226 = ORIENTED_EDGE ( 'NONE', *, *, #126, .T. ) ;
#227 = PRODUCT ( '2131', '2131', '', ( #183 ) ) ;
#228 = PERSON_AND_ORGANIZATION_ROLE ( 'creator' ) ;
#229 = DIRECTION ( 'NONE',  ( -0.000000000000000000, -0.000000000000000000, -1.000000000000000000 ) ) ;
#230 = PERSON_AND_ORGANIZATION_ROLE ( 'design_owner' ) ;
#231 = COORDINATED_UNIVERSAL_TIME_OFFSET ( 1, 0, .AHEAD. ) ;
#232 = AXIS2_PLACEMENT_3D ( 'NONE', #46, #97, #41 ) ;
#233 = APPROVAL_PERSON_ORGANIZATION ( #121, #168, #222 ) ;
#234 = SECURITY_CLASSIFICATION ( '', '', #47 ) ;
#235 = DIRECTION ( 'NONE',  ( 1.000000000000000000, 0.000000000000000000, -0.000000000000000000 ) ) ;
#236 = DIRECTION ( 'NONE',  ( -0.000000000000000000, -0.000000000000000000, -1.000000000000000000 ) ) ;
#237 = CIRCLE ( 'NONE', #167, 3.250000000000000444 ) ;
#238 = EDGE_CURVE ( 'NONE', #50, #242, #212, .T. ) ;
#239 = FACE_OUTER_BOUND ( 'NONE', #107, .T. ) ;
#240 = CARTESIAN_POINT ( 'NONE',  ( 0.000000000000000000, 0.000000000000000000, 0.000000000000000000 ) ) ;
#241 = DIRECTION ( 'NONE',  ( -0.000000000000000000, -0.000000000000000000, -1.000000000000000000 ) ) ;
#242 = VERTEX_POINT ( 'NONE', #18 ) ;
#243 = EDGE_CURVE ( 'NONE', #27, #9, #112, .T. ) ;
#244 = ORIENTED_EDGE ( 'NONE', *, *, #34, .T. ) ;
#245 = AXIS2_PLACEMENT_3D ( 'NONE', #2, #148, #235 ) ;
#246 = ORIENTED_EDGE ( 'NONE', *, *, #86, .F. ) ;
#247 = DATE_AND_TIME ( #90, #101 ) ;
#248 = ORIENTED_EDGE ( 'NONE', *, *, #80, .T. ) ;
#249 = PERSON_AND_ORGANIZATION_ROLE ( 'classification_officer' ) ;
#250 = DIRECTION ( 'NONE',  ( 0.000000000000000000, 0.000000000000000000, 1.000000000000000000 ) ) ;
#251 = PRODUCT_DEFINITION_FORMATION_WITH_SPECIFIED_SOURCE ( 'LIBOVOLNÝ', '', #227, .NOT_KNOWN. ) ;
#252 = COORDINATED_UNIVERSAL_TIME_OFFSET ( 1, 0, .AHEAD. ) ;
#253 = LOCAL_TIME ( 19, 37, 43.00000000000000000, #66 ) ;
#254 = LOCAL_TIME ( 19, 37, 43.00000000000000000, #252 ) ;
#255 = EDGE_CURVE ( 'NONE', #165, #68, #237, .T. ) ;
ENDSEC;
END-ISO-10303-21;
