ISO-10303-21;
HEADER;
FILE_DESCRIPTION (( 'STEP AP203' ),
    '1' );
FILE_NAME ('db5c.STEP',
    '2022-07-07T17:10:05',
    ( '' ),
    ( '' ),
    'SwSTEP 2.0',
    'SolidWorks 2019',
    '' );
FILE_SCHEMA (( 'CONFIG_CONTROL_DESIGN' ));
ENDSEC;

DATA;
#1 = APPROVAL_ROLE ( '' ) ;
#2 =( LENGTH_UNIT ( ) NAMED_UNIT ( * ) SI_UNIT ( .MILLI., .METRE. ) );
#3 = CC_DESIGN_PERSON_AND_ORGANIZATION_ASSIGNMENT ( #161, #66, ( #166 ) ) ;
#4 = DATE_AND_TIME ( #48, #151 ) ;
#5 = CC_DESIGN_APPROVAL ( #95, ( #166 ) ) ;
#6 = EDGE_CURVE ( 'NONE', #123, #163, #104, .T. ) ;
#7 = CC_DESIGN_SECURITY_CLASSIFICATION ( #13, ( #140 ) ) ;
#8 = DIRECTION ( 'NONE',  ( -0.000000000000000000, -0.000000000000000000, -1.000000000000000000 ) ) ;
#9 = CARTESIAN_POINT ( 'NONE',  ( -11.00000000000000000, 0.000000000000000000, 0.000000000000000000 ) ) ;
#10 = AXIS2_PLACEMENT_3D ( 'NONE', #118, #250, #233 ) ;
#11 = DIRECTION ( 'NONE',  ( -1.000000000000000000, 0.000000000000000000, 0.000000000000000000 ) ) ;
#12 = APPLICATION_CONTEXT ( 'configuration controlled 3d designs of mechanical parts and assemblies' ) ;
#13 = SECURITY_CLASSIFICATION ( '', '', #254 ) ;
#14 = CYLINDRICAL_SURFACE ( 'NONE', #86, 7.500000000000000000 ) ;
#15 = EDGE_CURVE ( 'NONE', #176, #82, #206, .T. ) ;
#16 = CIRCLE ( 'NONE', #52, 11.00000000000000000 ) ;
#17 = ORIENTED_EDGE ( 'NONE', *, *, #67, .T. ) ;
#18 = EDGE_LOOP ( 'NONE', ( #232, #17 ) ) ;
#19 = EDGE_CURVE ( 'NONE', #177, #249, #61, .T. ) ;
#20 = VERTEX_POINT ( 'NONE', #227 ) ;
#21 = CALENDAR_DATE ( 2022, 7, 7 ) ;
#22 = EDGE_LOOP ( 'NONE', ( #160, #81, #217, #252 ) ) ;
#23 = DIRECTION ( 'NONE',  ( 0.000000000000000000, 0.000000000000000000, 1.000000000000000000 ) ) ;
#24 = ORIENTED_EDGE ( 'NONE', *, *, #15, .T. ) ;
#25 =( NAMED_UNIT ( * ) SI_UNIT ( $, .STERADIAN. ) SOLID_ANGLE_UNIT ( ) );
#26 = APPROVAL_DATE_TIME ( #90, #78 ) ;
#27 = EDGE_CURVE ( 'NONE', #65, #20, #186, .T. ) ;
#28 = PERSON_AND_ORGANIZATION_ROLE ( 'classification_officer' ) ;
#29 = CC_DESIGN_PERSON_AND_ORGANIZATION_ASSIGNMENT ( #106, #164, ( #140 ) ) ;
#30 = APPLICATION_CONTEXT ( 'configuration controlled 3d designs of mechanical parts and assemblies' ) ;
#31 = CARTESIAN_POINT ( 'NONE',  ( 0.000000000000000000, 0.000000000000000000, 0.000000000000000000 ) ) ;
#32 = AXIS2_PLACEMENT_3D ( 'NONE', #181, #219, #43 ) ;
#33 = DIRECTION ( 'NONE',  ( -0.000000000000000000, -0.000000000000000000, -1.000000000000000000 ) ) ;
#34 = FACE_OUTER_BOUND ( 'NONE', #41, .T. ) ;
#35 = MANIFOLD_SOLID_BREP ( 'Pøidat vysunutím3', #229 ) ;
#36 = DIRECTION ( 'NONE',  ( 0.000000000000000000, 0.000000000000000000, 1.000000000000000000 ) ) ;
#37 = ADVANCED_FACE ( 'NONE', ( #34 ), #115, .T. ) ;
#38 = DIRECTION ( 'NONE',  ( 0.000000000000000000, 0.000000000000000000, 1.000000000000000000 ) ) ;
#39 = EDGE_LOOP ( 'NONE', ( #159, #235, #195, #180 ) ) ;
#40 = DIRECTION ( 'NONE',  ( 0.000000000000000000, 0.000000000000000000, 1.000000000000000000 ) ) ;
#41 = EDGE_LOOP ( 'NONE', ( #102, #42, #197, #62 ) ) ;
#42 = ORIENTED_EDGE ( 'NONE', *, *, #244, .F. ) ;
#43 = DIRECTION ( 'NONE',  ( 1.000000000000000000, 0.000000000000000000, -0.000000000000000000 ) ) ;
#44 = COORDINATED_UNIVERSAL_TIME_OFFSET ( 1, 0, .AHEAD. ) ;
#45 = CARTESIAN_POINT ( 'NONE',  ( 11.00000000000000000, 1.347111479062088405E-15, 0.000000000000000000 ) ) ;
#46 = PERSON_AND_ORGANIZATION ( #110, #107 ) ;
#47 = COORDINATED_UNIVERSAL_TIME_OFFSET ( 1, 0, .AHEAD. ) ;
#48 = CALENDAR_DATE ( 2022, 7, 7 ) ;
#49 = VECTOR ( 'NONE', #155, 1000.000000000000000 ) ;
#50 = EDGE_CURVE ( 'NONE', #176, #20, #169, .T. ) ;
#51 = PRODUCT_DEFINITION_SHAPE ( 'NONE', 'NONE',  #166 ) ;
#52 = AXIS2_PLACEMENT_3D ( 'NONE', #57, #207, #152 ) ;
#53 = EDGE_CURVE ( 'NONE', #249, #163, #16, .T. ) ;
#54 = LINE ( 'NONE', #208, #59 ) ;
#55 = LOCAL_TIME ( 19, 10, 5.000000000000000000, #47 ) ;
#56 = CARTESIAN_POINT ( 'NONE',  ( 0.000000000000000000, 0.000000000000000000, 7.000000000000000000 ) ) ;
#57 = CARTESIAN_POINT ( 'NONE',  ( 0.000000000000000000, 0.000000000000000000, 0.000000000000000000 ) ) ;
#58 = CARTESIAN_POINT ( 'NONE',  ( 0.000000000000000000, 0.000000000000000000, 322.0000000000000000 ) ) ;
#59 = VECTOR ( 'NONE', #33, 1000.000000000000000 ) ;
#60 = EDGE_LOOP ( 'NONE', ( #174, #83, #85, #237 ) ) ;
#61 = LINE ( 'NONE', #139, #234 ) ;
#62 = ORIENTED_EDGE ( 'NONE', *, *, #87, .T. ) ;
#63 = DATE_AND_TIME ( #146, #196 ) ;
#64 = CALENDAR_DATE ( 2022, 7, 7 ) ;
#65 = VERTEX_POINT ( 'NONE', #135 ) ;
#66 = PERSON_AND_ORGANIZATION_ROLE ( 'creator' ) ;
#67 = EDGE_CURVE ( 'NONE', #177, #123, #91, .T. ) ;
#68 = COORDINATED_UNIVERSAL_TIME_OFFSET ( 1, 0, .AHEAD. ) ;
#69 = AXIS2_PLACEMENT_3D ( 'NONE', #226, #36, #246 ) ;
#70 = COORDINATED_UNIVERSAL_TIME_OFFSET ( 1, 0, .AHEAD. ) ;
#71 = APPLICATION_PROTOCOL_DEFINITION ( 'international standard', 'config_control_design', 1994, #30 ) ;
#72 = APPROVAL_DATE_TIME ( #203, #189 ) ;
#73 = CC_DESIGN_APPROVAL ( #189, ( #13 ) ) ;
#74 = ADVANCED_FACE ( 'NONE', ( #77 ), #173, .T. ) ;
#75 = DIRECTION ( 'NONE',  ( 1.000000000000000000, 0.000000000000000000, -0.000000000000000000 ) ) ;
#76 = ADVANCED_BREP_SHAPE_REPRESENTATION ( 'db5c', ( #35, #108 ), #119 ) ;
#77 = FACE_OUTER_BOUND ( 'NONE', #22, .T. ) ;
#78 = APPROVAL ( #236, 'NEURÈENÝ' ) ;
#79 = CARTESIAN_POINT ( 'NONE',  ( -11.00000000000000000, 0.000000000000000000, 7.000000000000000000 ) ) ;
#80 = DIRECTION ( 'NONE',  ( -1.000000000000000000, 0.000000000000000000, 0.000000000000000000 ) ) ;
#81 = ORIENTED_EDGE ( 'NONE', *, *, #15, .F. ) ;
#82 = VERTEX_POINT ( 'NONE', #209 ) ;
#83 = ORIENTED_EDGE ( 'NONE', *, *, #225, .T. ) ;
#84 = APPROVAL_DATE_TIME ( #178, #95 ) ;
#85 = ORIENTED_EDGE ( 'NONE', *, *, #27, .T. ) ;
#86 = AXIS2_PLACEMENT_3D ( 'NONE', #153, #98, #11 ) ;
#87 = EDGE_CURVE ( 'NONE', #163, #249, #199, .T. ) ;
#88 = DIRECTION ( 'NONE',  ( 1.000000000000000000, 0.000000000000000000, -0.000000000000000000 ) ) ;
#89 = DIRECTION ( 'NONE',  ( 0.000000000000000000, 0.000000000000000000, 1.000000000000000000 ) ) ;
#90 = DATE_AND_TIME ( #64, #172 ) ;
#91 = CIRCLE ( 'NONE', #69, 11.00000000000000000 ) ;
#92 = MECHANICAL_CONTEXT ( 'NONE', #12, 'mechanical' ) ;
#93 = COORDINATED_UNIVERSAL_TIME_OFFSET ( 1, 0, .AHEAD. ) ;
#94 = LOCAL_TIME ( 19, 10, 5.000000000000000000, #44 ) ;
#95 = APPROVAL ( #149, 'NEURÈENÝ' ) ;
#96 = CARTESIAN_POINT ( 'NONE',  ( -7.500000000000000000, 0.000000000000000000, 322.0000000000000000 ) ) ;
#97 = CYLINDRICAL_SURFACE ( 'NONE', #133, 11.00000000000000000 ) ;
#98 = DIRECTION ( 'NONE',  ( -0.000000000000000000, -0.000000000000000000, -1.000000000000000000 ) ) ;
#99 = CARTESIAN_POINT ( 'NONE',  ( 0.000000000000000000, 0.000000000000000000, 7.000000000000000000 ) ) ;
#100 = ORIENTED_EDGE ( 'NONE', *, *, #53, .F. ) ;
#101 = APPROVAL_PERSON_ORGANIZATION ( #143, #189, #148 ) ;
#102 = ORIENTED_EDGE ( 'NONE', *, *, #19, .F. ) ;
#103 = EDGE_LOOP ( 'NONE', ( #24, #141 ) ) ;
#104 = LINE ( 'NONE', #157, #167 ) ;
#105 = DIRECTION ( 'NONE',  ( 1.000000000000000000, 0.000000000000000000, 0.000000000000000000 ) ) ;
#106 = PERSON_AND_ORGANIZATION ( #110, #107 ) ;
#107 = ORGANIZATION ( 'NEURÈENÝ', 'NEURÈENÝ', '' ) ;
#108 = AXIS2_PLACEMENT_3D ( 'NONE', #200, #23, #165 ) ;
#109 = DESIGN_CONTEXT ( 'detailed design', #30, 'design' ) ;
#110 = PERSON ( 'NEURÈENÝ', 'NEURÈENÝ', 'NEURÈENÝ', ('NEURÈENÝ'), ('NEURÈENÝ'), ('NEURÈENÝ') ) ;
#111 = AXIS2_PLACEMENT_3D ( 'NONE', #191, #170, #105 ) ;
#112 = CARTESIAN_POINT ( 'NONE',  ( 0.000000000000000000, 0.000000000000000000, 7.000000000000000000 ) ) ;
#113 = DIRECTION ( 'NONE',  ( 0.000000000000000000, 0.000000000000000000, 1.000000000000000000 ) ) ;
#114 = CC_DESIGN_PERSON_AND_ORGANIZATION_ASSIGNMENT ( #46, #28, ( #13 ) ) ;
#115 = CYLINDRICAL_SURFACE ( 'NONE', #179, 11.00000000000000000 ) ;
#116 = FACE_OUTER_BOUND ( 'NONE', #39, .T. ) ;
#117 = DIRECTION ( 'NONE',  ( -0.000000000000000000, -0.000000000000000000, -1.000000000000000000 ) ) ;
#118 = CARTESIAN_POINT ( 'NONE',  ( 0.000000000000000000, 0.000000000000000000, 322.0000000000000000 ) ) ;
#119 =( GEOMETRIC_REPRESENTATION_CONTEXT ( 3 ) GLOBAL_UNCERTAINTY_ASSIGNED_CONTEXT ( ( #154 ) ) GLOBAL_UNIT_ASSIGNED_CONTEXT ( ( #2, #184, #25 ) ) REPRESENTATION_CONTEXT ( 'NONE', 'WORKASPACE' ) );
#120 = ORIENTED_EDGE ( 'NONE', *, *, #87, .F. ) ;
#121 = PLANE ( 'NONE',  #32 ) ;
#122 = ADVANCED_FACE ( 'NONE', ( #194 ), #14, .T. ) ;
#123 = VERTEX_POINT ( 'NONE', #79 ) ;
#124 = CARTESIAN_POINT ( 'NONE',  ( 0.000000000000000000, 0.000000000000000000, 7.000000000000000000 ) ) ;
#125 = AXIS2_PLACEMENT_3D ( 'NONE', #131, #8, #245 ) ;
#126 = ORIENTED_EDGE ( 'NONE', *, *, #241, .F. ) ;
#127 = DIRECTION ( 'NONE',  ( 1.000000000000000000, 0.000000000000000000, 0.000000000000000000 ) ) ;
#128 = PERSON_AND_ORGANIZATION ( #110, #107 ) ;
#129 = CARTESIAN_POINT ( 'NONE',  ( 0.000000000000000000, 0.000000000000000000, 7.000000000000000000 ) ) ;
#130 = AXIS2_PLACEMENT_3D ( 'NONE', #112, #136, #134 ) ;
#131 = CARTESIAN_POINT ( 'NONE',  ( 0.000000000000000000, 0.000000000000000000, 322.0000000000000000 ) ) ;
#132 = CARTESIAN_POINT ( 'NONE',  ( -7.500000000000000000, 0.000000000000000000, 322.0000000000000000 ) ) ;
#133 = AXIS2_PLACEMENT_3D ( 'NONE', #99, #247, #80 ) ;
#134 = DIRECTION ( 'NONE',  ( 1.000000000000000000, 0.000000000000000000, 0.000000000000000000 ) ) ;
#135 = CARTESIAN_POINT ( 'NONE',  ( 7.500000000000000000, 9.184850993605147944E-16, 7.000000000000000000 ) ) ;
#136 = DIRECTION ( 'NONE',  ( 0.000000000000000000, 0.000000000000000000, 1.000000000000000000 ) ) ;
#137 = CC_DESIGN_DATE_AND_TIME_ASSIGNMENT ( #4, #218, ( #13 ) ) ;
#138 = ORIENTED_EDGE ( 'NONE', *, *, #27, .F. ) ;
#139 = CARTESIAN_POINT ( 'NONE',  ( 11.00000000000000000, 1.347111479062088405E-15, 7.000000000000000000 ) ) ;
#140 = PRODUCT_DEFINITION_FORMATION_WITH_SPECIFIED_SOURCE ( 'LIBOVOLNÝ', '', #230, .NOT_KNOWN. ) ;
#141 = ORIENTED_EDGE ( 'NONE', *, *, #147, .T. ) ;
#142 = DATE_TIME_ROLE ( 'creation_date' ) ;
#143 = PERSON_AND_ORGANIZATION ( #110, #107 ) ;
#144 = EDGE_LOOP ( 'NONE', ( #120, #100 ) ) ;
#145 = FACE_BOUND ( 'NONE', #215, .T. ) ;
#146 = CALENDAR_DATE ( 2022, 7, 7 ) ;
#147 = EDGE_CURVE ( 'NONE', #82, #176, #223, .T. ) ;
#148 = APPROVAL_ROLE ( '' ) ;
#149 = APPROVAL_STATUS ( 'not_yet_approved' ) ;
#150 = SHAPE_DEFINITION_REPRESENTATION ( #51, #76 ) ;
#151 = LOCAL_TIME ( 19, 10, 5.000000000000000000, #70 ) ;
#152 = DIRECTION ( 'NONE',  ( 1.000000000000000000, 0.000000000000000000, 0.000000000000000000 ) ) ;
#153 = CARTESIAN_POINT ( 'NONE',  ( 0.000000000000000000, 0.000000000000000000, 322.0000000000000000 ) ) ;
#154 = UNCERTAINTY_MEASURE_WITH_UNIT (LENGTH_MEASURE( 1.000000000000000082E-05 ), #2, 'distance_accuracy_value', 'NONE');
#155 = DIRECTION ( 'NONE',  ( -0.000000000000000000, -0.000000000000000000, -1.000000000000000000 ) ) ;
#156 = FACE_OUTER_BOUND ( 'NONE', #103, .T. ) ;
#157 = CARTESIAN_POINT ( 'NONE',  ( -11.00000000000000000, 0.000000000000000000, 7.000000000000000000 ) ) ;
#158 = CC_DESIGN_PERSON_AND_ORGANIZATION_ASSIGNMENT ( #239, #205, ( #230 ) ) ;
#159 = ORIENTED_EDGE ( 'NONE', *, *, #67, .F. ) ;
#160 = ORIENTED_EDGE ( 'NONE', *, *, #225, .F. ) ;
#161 = PERSON_AND_ORGANIZATION ( #110, #107 ) ;
#162 = AXIS2_PLACEMENT_3D ( 'NONE', #58, #38, #75 ) ;
#163 = VERTEX_POINT ( 'NONE', #9 ) ;
#164 = PERSON_AND_ORGANIZATION_ROLE ( 'design_supplier' ) ;
#165 = DIRECTION ( 'NONE',  ( 1.000000000000000000, 0.000000000000000000, 0.000000000000000000 ) ) ;
#166 = PRODUCT_DEFINITION ( 'NEZNÁMÝ', '', #140, #109 ) ;
#167 = VECTOR ( 'NONE', #214, 1000.000000000000000 ) ;
#168 = AXIS2_PLACEMENT_3D ( 'NONE', #129, #89, #127 ) ;
#169 = LINE ( 'NONE', #96, #49 ) ;
#170 = DIRECTION ( 'NONE',  ( 0.000000000000000000, 0.000000000000000000, 1.000000000000000000 ) ) ;
#171 = DIRECTION ( 'NONE',  ( -1.000000000000000000, 0.000000000000000000, 0.000000000000000000 ) ) ;
#172 = LOCAL_TIME ( 19, 10, 5.000000000000000000, #93 ) ;
#173 = CYLINDRICAL_SURFACE ( 'NONE', #125, 7.500000000000000000 ) ;
#174 = ORIENTED_EDGE ( 'NONE', *, *, #147, .F. ) ;
#175 = CIRCLE ( 'NONE', #111, 7.500000000000000000 ) ;
#176 = VERTEX_POINT ( 'NONE', #132 ) ;
#177 = VERTEX_POINT ( 'NONE', #231 ) ;
#178 = DATE_AND_TIME ( #21, #55 ) ;
#179 = AXIS2_PLACEMENT_3D ( 'NONE', #56, #117, #171 ) ;
#180 = ORIENTED_EDGE ( 'NONE', *, *, #6, .F. ) ;
#181 = CARTESIAN_POINT ( 'NONE',  ( 0.000000000000000000, 0.000000000000000000, 0.000000000000000000 ) ) ;
#182 = APPROVAL_STATUS ( 'not_yet_approved' ) ;
#183 = CC_DESIGN_PERSON_AND_ORGANIZATION_ASSIGNMENT ( #221, #240, ( #140 ) ) ;
#184 =( NAMED_UNIT ( * ) PLANE_ANGLE_UNIT ( ) SI_UNIT ( $, .RADIAN. ) );
#185 = PLANE ( 'NONE',  #220 ) ;
#186 = CIRCLE ( 'NONE', #130, 7.500000000000000000 ) ;
#187 = ADVANCED_FACE ( 'NONE', ( #116 ), #97, .T. ) ;
#188 = AXIS2_PLACEMENT_3D ( 'NONE', #243, #113, #211 ) ;
#189 = APPROVAL ( #182, 'NEURÈENÝ' ) ;
#190 = DIRECTION ( 'NONE',  ( 0.000000000000000000, 0.000000000000000000, 1.000000000000000000 ) ) ;
#191 = CARTESIAN_POINT ( 'NONE',  ( 0.000000000000000000, 0.000000000000000000, 7.000000000000000000 ) ) ;
#192 = AXIS2_PLACEMENT_3D ( 'NONE', #31, #190, #193 ) ;
#193 = DIRECTION ( 'NONE',  ( 1.000000000000000000, 0.000000000000000000, 0.000000000000000000 ) ) ;
#194 = FACE_OUTER_BOUND ( 'NONE', #60, .T. ) ;
#195 = ORIENTED_EDGE ( 'NONE', *, *, #53, .T. ) ;
#196 = LOCAL_TIME ( 19, 10, 5.000000000000000000, #68 ) ;
#197 = ORIENTED_EDGE ( 'NONE', *, *, #6, .T. ) ;
#198 = FACE_OUTER_BOUND ( 'NONE', #18, .T. ) ;
#199 = CIRCLE ( 'NONE', #192, 11.00000000000000000 ) ;
#200 = CARTESIAN_POINT ( 'NONE',  ( 0.000000000000000000, 0.000000000000000000, 0.000000000000000000 ) ) ;
#201 = PRODUCT_RELATED_PRODUCT_CATEGORY ( 'detail', '', ( #230 ) ) ;
#202 = CALENDAR_DATE ( 2022, 7, 7 ) ;
#203 = DATE_AND_TIME ( #202, #94 ) ;
#204 = CC_DESIGN_DATE_AND_TIME_ASSIGNMENT ( #63, #142, ( #166 ) ) ;
#205 = PERSON_AND_ORGANIZATION_ROLE ( 'design_owner' ) ;
#206 = CIRCLE ( 'NONE', #10, 7.500000000000000000 ) ;
#207 = DIRECTION ( 'NONE',  ( 0.000000000000000000, 0.000000000000000000, 1.000000000000000000 ) ) ;
#208 = CARTESIAN_POINT ( 'NONE',  ( 7.500000000000000000, 9.184850993605147944E-16, 322.0000000000000000 ) ) ;
#209 = CARTESIAN_POINT ( 'NONE',  ( 7.500000000000000000, 9.184850993605147944E-16, 322.0000000000000000 ) ) ;
#210 = ADVANCED_FACE ( 'NONE', ( #156 ), #213, .T. ) ;
#211 = DIRECTION ( 'NONE',  ( 1.000000000000000000, 0.000000000000000000, 0.000000000000000000 ) ) ;
#212 = APPROVAL_PERSON_ORGANIZATION ( #255, #95, #222 ) ;
#213 = PLANE ( 'NONE',  #162 ) ;
#214 = DIRECTION ( 'NONE',  ( -0.000000000000000000, -0.000000000000000000, -1.000000000000000000 ) ) ;
#215 = EDGE_LOOP ( 'NONE', ( #126, #138 ) ) ;
#216 = FACE_OUTER_BOUND ( 'NONE', #144, .T. ) ;
#217 = ORIENTED_EDGE ( 'NONE', *, *, #50, .T. ) ;
#218 = DATE_TIME_ROLE ( 'classification_date' ) ;
#219 = DIRECTION ( 'NONE',  ( 0.000000000000000000, 0.000000000000000000, 1.000000000000000000 ) ) ;
#220 = AXIS2_PLACEMENT_3D ( 'NONE', #124, #40, #88 ) ;
#221 = PERSON_AND_ORGANIZATION ( #110, #107 ) ;
#222 = APPROVAL_ROLE ( '' ) ;
#223 = CIRCLE ( 'NONE', #188, 7.500000000000000000 ) ;
#224 = CIRCLE ( 'NONE', #168, 11.00000000000000000 ) ;
#225 = EDGE_CURVE ( 'NONE', #82, #65, #54, .T. ) ;
#226 = CARTESIAN_POINT ( 'NONE',  ( 0.000000000000000000, 0.000000000000000000, 7.000000000000000000 ) ) ;
#227 = CARTESIAN_POINT ( 'NONE',  ( -7.500000000000000000, 0.000000000000000000, 7.000000000000000000 ) ) ;
#228 = DIRECTION ( 'NONE',  ( -0.000000000000000000, -0.000000000000000000, -1.000000000000000000 ) ) ;
#229 = CLOSED_SHELL ( 'NONE', ( #122, #187, #37, #248, #251, #74, #210 ) ) ;
#230 = PRODUCT ( 'db5c', 'db5c', '', ( #92 ) ) ;
#231 = CARTESIAN_POINT ( 'NONE',  ( 11.00000000000000000, 1.347111479062088405E-15, 7.000000000000000000 ) ) ;
#232 = ORIENTED_EDGE ( 'NONE', *, *, #244, .T. ) ;
#233 = DIRECTION ( 'NONE',  ( 1.000000000000000000, 0.000000000000000000, 0.000000000000000000 ) ) ;
#234 = VECTOR ( 'NONE', #228, 1000.000000000000000 ) ;
#235 = ORIENTED_EDGE ( 'NONE', *, *, #19, .T. ) ;
#236 = APPROVAL_STATUS ( 'not_yet_approved' ) ;
#237 = ORIENTED_EDGE ( 'NONE', *, *, #50, .F. ) ;
#238 = APPLICATION_PROTOCOL_DEFINITION ( 'international standard', 'config_control_design', 1994, #12 ) ;
#239 = PERSON_AND_ORGANIZATION ( #110, #107 ) ;
#240 = PERSON_AND_ORGANIZATION_ROLE ( 'creator' ) ;
#241 = EDGE_CURVE ( 'NONE', #20, #65, #175, .T. ) ;
#242 = APPROVAL_PERSON_ORGANIZATION ( #128, #78, #1 ) ;
#243 = CARTESIAN_POINT ( 'NONE',  ( 0.000000000000000000, 0.000000000000000000, 322.0000000000000000 ) ) ;
#244 = EDGE_CURVE ( 'NONE', #123, #177, #224, .T. ) ;
#245 = DIRECTION ( 'NONE',  ( -1.000000000000000000, 0.000000000000000000, 0.000000000000000000 ) ) ;
#246 = DIRECTION ( 'NONE',  ( 1.000000000000000000, 0.000000000000000000, 0.000000000000000000 ) ) ;
#247 = DIRECTION ( 'NONE',  ( -0.000000000000000000, -0.000000000000000000, -1.000000000000000000 ) ) ;
#248 = ADVANCED_FACE ( 'NONE', ( #145, #198 ), #185, .T. ) ;
#249 = VERTEX_POINT ( 'NONE', #45 ) ;
#250 = DIRECTION ( 'NONE',  ( 0.000000000000000000, 0.000000000000000000, 1.000000000000000000 ) ) ;
#251 = ADVANCED_FACE ( 'NONE', ( #216 ), #121, .F. ) ;
#252 = ORIENTED_EDGE ( 'NONE', *, *, #241, .T. ) ;
#253 = CC_DESIGN_APPROVAL ( #78, ( #140 ) ) ;
#254 = SECURITY_CLASSIFICATION_LEVEL ( 'unclassified' ) ;
#255 = PERSON_AND_ORGANIZATION ( #110, #107 ) ;
ENDSEC;
END-ISO-10303-21;
