ISO-10303-21;
HEADER;
FILE_DESCRIPTION (( 'STEP AP203' ),
    '1' );
FILE_NAME ('8df5.STEP',
    '2022-07-07T17:32:16',
    ( '' ),
    ( '' ),
    'SwSTEP 2.0',
    'SolidWorks 2019',
    '' );
FILE_SCHEMA (( 'CONFIG_CONTROL_DESIGN' ));
ENDSEC;

DATA;
#1 = PRODUCT ( '8df5', '8df5', '', ( #180 ) ) ;
#2 = PERSON_AND_ORGANIZATION_ROLE ( 'design_owner' ) ;
#3 = CYLINDRICAL_SURFACE ( 'NONE', #203, 7.000000000000000000 ) ;
#4 = DIRECTION ( 'NONE',  ( 1.000000000000000000, 0.000000000000000000, 0.000000000000000000 ) ) ;
#5 = PERSON_AND_ORGANIZATION ( #233, #151 ) ;
#6 = AXIS2_PLACEMENT_3D ( 'NONE', #144, #105, #85 ) ;
#7 = PRODUCT_RELATED_PRODUCT_CATEGORY ( 'detail', '', ( #1 ) ) ;
#8 = CIRCLE ( 'NONE', #74, 7.000000000000000000 ) ;
#9 = ADVANCED_FACE ( 'NONE', ( #94 ), #83, .T. ) ;
#10 = ORIENTED_EDGE ( 'NONE', *, *, #108, .T. ) ;
#11 = APPROVAL_STATUS ( 'not_yet_approved' ) ;
#12 = DIRECTION ( 'NONE',  ( 0.000000000000000000, 0.000000000000000000, 1.000000000000000000 ) ) ;
#13 = CARTESIAN_POINT ( 'NONE',  ( -4.099999999999999645, 0.000000000000000000, 130.0000000000000000 ) ) ;
#14 = PERSON_AND_ORGANIZATION ( #233, #151 ) ;
#15 = CARTESIAN_POINT ( 'NONE',  ( 7.000000000000000000, 8.572527594031473190E-16, 0.000000000000000000 ) ) ;
#16 = VECTOR ( 'NONE', #234, 1000.000000000000000 ) ;
#17 = ORIENTED_EDGE ( 'NONE', *, *, #147, .T. ) ;
#18 = LOCAL_TIME ( 19, 32, 16.00000000000000000, #148 ) ;
#19 = FACE_OUTER_BOUND ( 'NONE', #196, .T. ) ;
#20 = ORIENTED_EDGE ( 'NONE', *, *, #108, .F. ) ;
#21 = EDGE_CURVE ( 'NONE', #197, #205, #174, .T. ) ;
#22 = CARTESIAN_POINT ( 'NONE',  ( 0.000000000000000000, 0.000000000000000000, 130.0000000000000000 ) ) ;
#23 =( NAMED_UNIT ( * ) SI_UNIT ( $, .STERADIAN. ) SOLID_ANGLE_UNIT ( ) );
#24 = APPLICATION_CONTEXT ( 'configuration controlled 3d designs of mechanical parts and assemblies' ) ;
#25 = CARTESIAN_POINT ( 'NONE',  ( -7.000000000000000000, 0.000000000000000000, 5.000000000000000000 ) ) ;
#26 = EDGE_CURVE ( 'NONE', #119, #92, #34, .T. ) ;
#27 = DIRECTION ( 'NONE',  ( 0.000000000000000000, 0.000000000000000000, 1.000000000000000000 ) ) ;
#28 = FACE_OUTER_BOUND ( 'NONE', #138, .T. ) ;
#29 = CIRCLE ( 'NONE', #63, 4.099999999999999645 ) ;
#30 = DATE_AND_TIME ( #50, #107 ) ;
#31 = AXIS2_PLACEMENT_3D ( 'NONE', #173, #82, #190 ) ;
#32 = AXIS2_PLACEMENT_3D ( 'NONE', #75, #114, #195 ) ;
#33 = DIRECTION ( 'NONE',  ( -0.000000000000000000, -0.000000000000000000, -1.000000000000000000 ) ) ;
#34 = LINE ( 'NONE', #112, #52 ) ;
#35 = CARTESIAN_POINT ( 'NONE',  ( 0.000000000000000000, 0.000000000000000000, 5.000000000000000000 ) ) ;
#36 = EDGE_LOOP ( 'NONE', ( #56, #210 ) ) ;
#37 = LINE ( 'NONE', #212, #202 ) ;
#38 = VERTEX_POINT ( 'NONE', #168 ) ;
#39 = PLANE ( 'NONE',  #117 ) ;
#40 = VERTEX_POINT ( 'NONE', #13 ) ;
#41 = CARTESIAN_POINT ( 'NONE',  ( 0.000000000000000000, 0.000000000000000000, 0.000000000000000000 ) ) ;
#42 = CIRCLE ( 'NONE', #95, 7.000000000000000000 ) ;
#43 = COORDINATED_UNIVERSAL_TIME_OFFSET ( 1, 0, .AHEAD. ) ;
#44 = AXIS2_PLACEMENT_3D ( 'NONE', #193, #116, #231 ) ;
#45 = DATE_AND_TIME ( #142, #211 ) ;
#46 = FACE_OUTER_BOUND ( 'NONE', #118, .T. ) ;
#47 = CALENDAR_DATE ( 2022, 7, 7 ) ;
#48 = PRODUCT_DEFINITION_FORMATION_WITH_SPECIFIED_SOURCE ( 'LIBOVOLNÝ', '', #1, .NOT_KNOWN. ) ;
#49 = CC_DESIGN_DATE_AND_TIME_ASSIGNMENT ( #30, #188, ( #65 ) ) ;
#50 = CALENDAR_DATE ( 2022, 7, 7 ) ;
#51 = APPROVAL ( #238, 'NEURÈENÝ' ) ;
#52 = VECTOR ( 'NONE', #191, 1000.000000000000000 ) ;
#53 = COORDINATED_UNIVERSAL_TIME_OFFSET ( 1, 0, .AHEAD. ) ;
#54 = ORIENTED_EDGE ( 'NONE', *, *, #165, .T. ) ;
#55 = LINE ( 'NONE', #204, #16 ) ;
#56 = ORIENTED_EDGE ( 'NONE', *, *, #97, .T. ) ;
#57 = DIRECTION ( 'NONE',  ( 0.000000000000000000, 0.000000000000000000, 1.000000000000000000 ) ) ;
#58 = ORIENTED_EDGE ( 'NONE', *, *, #109, .T. ) ;
#59 = DIRECTION ( 'NONE',  ( 0.000000000000000000, 0.000000000000000000, 1.000000000000000000 ) ) ;
#60 = ORIENTED_EDGE ( 'NONE', *, *, #201, .F. ) ;
#61 = APPLICATION_PROTOCOL_DEFINITION ( 'international standard', 'config_control_design', 1994, #24 ) ;
#62 = CARTESIAN_POINT ( 'NONE',  ( 4.099999999999999645, 5.021051876504147385E-16, 130.0000000000000000 ) ) ;
#63 = AXIS2_PLACEMENT_3D ( 'NONE', #162, #12, #4 ) ;
#64 = PLANE ( 'NONE',  #88 ) ;
#65 = SECURITY_CLASSIFICATION ( '', '', #134 ) ;
#66 = ADVANCED_FACE ( 'NONE', ( #172, #253 ), #64, .T. ) ;
#67 = APPROVAL_DATE_TIME ( #160, #51 ) ;
#68 =( GEOMETRIC_REPRESENTATION_CONTEXT ( 3 ) GLOBAL_UNCERTAINTY_ASSIGNED_CONTEXT ( ( #239 ) ) GLOBAL_UNIT_ASSIGNED_CONTEXT ( ( #164, #181, #23 ) ) REPRESENTATION_CONTEXT ( 'NONE', 'WORKASPACE' ) );
#69 = ADVANCED_FACE ( 'NONE', ( #96 ), #171, .T. ) ;
#70 = PRODUCT_DEFINITION_SHAPE ( 'NONE', 'NONE',  #103 ) ;
#71 = PERSON_AND_ORGANIZATION_ROLE ( 'classification_officer' ) ;
#72 = DATE_AND_TIME ( #251, #18 ) ;
#73 = EDGE_LOOP ( 'NONE', ( #77, #155, #17, #100 ) ) ;
#74 = AXIS2_PLACEMENT_3D ( 'NONE', #252, #157, #167 ) ;
#75 = CARTESIAN_POINT ( 'NONE',  ( 0.000000000000000000, 0.000000000000000000, 0.000000000000000000 ) ) ;
#76 = APPROVAL_PERSON_ORGANIZATION ( #140, #51, #121 ) ;
#77 = ORIENTED_EDGE ( 'NONE', *, *, #143, .F. ) ;
#78 = SHAPE_DEFINITION_REPRESENTATION ( #70, #87 ) ;
#79 = DIRECTION ( 'NONE',  ( 1.000000000000000000, 0.000000000000000000, -0.000000000000000000 ) ) ;
#80 = ORIENTED_EDGE ( 'NONE', *, *, #21, .T. ) ;
#81 = APPROVAL ( #221, 'NEURÈENÝ' ) ;
#82 = DIRECTION ( 'NONE',  ( 0.000000000000000000, 0.000000000000000000, 1.000000000000000000 ) ) ;
#83 = CYLINDRICAL_SURFACE ( 'NONE', #198, 4.099999999999999645 ) ;
#84 = DATE_TIME_ROLE ( 'creation_date' ) ;
#85 = DIRECTION ( 'NONE',  ( 1.000000000000000000, 0.000000000000000000, 0.000000000000000000 ) ) ;
#86 = APPROVAL_DATE_TIME ( #45, #81 ) ;
#87 = ADVANCED_BREP_SHAPE_REPRESENTATION ( '8df5', ( #223, #166 ), #68 ) ;
#88 = AXIS2_PLACEMENT_3D ( 'NONE', #152, #206, #79 ) ;
#89 = CC_DESIGN_PERSON_AND_ORGANIZATION_ASSIGNMENT ( #113, #169, ( #48 ) ) ;
#90 = EDGE_CURVE ( 'NONE', #119, #197, #8, .T. ) ;
#91 = PERSON_AND_ORGANIZATION_ROLE ( 'design_supplier' ) ;
#92 = VERTEX_POINT ( 'NONE', #179 ) ;
#93 = CARTESIAN_POINT ( 'NONE',  ( 0.000000000000000000, 0.000000000000000000, 0.000000000000000000 ) ) ;
#94 = FACE_OUTER_BOUND ( 'NONE', #73, .T. ) ;
#95 = AXIS2_PLACEMENT_3D ( 'NONE', #93, #59, #137 ) ;
#96 = FACE_OUTER_BOUND ( 'NONE', #189, .T. ) ;
#97 = EDGE_CURVE ( 'NONE', #40, #255, #215, .T. ) ;
#98 = CARTESIAN_POINT ( 'NONE',  ( 7.000000000000000000, 8.572527594031473190E-16, 5.000000000000000000 ) ) ;
#99 = CYLINDRICAL_SURFACE ( 'NONE', #176, 4.099999999999999645 ) ;
#100 = ORIENTED_EDGE ( 'NONE', *, *, #156, .F. ) ;
#101 = DESIGN_CONTEXT ( 'detailed design', #24, 'design' ) ;
#102 = DIRECTION ( 'NONE',  ( -0.000000000000000000, -0.000000000000000000, -1.000000000000000000 ) ) ;
#103 = PRODUCT_DEFINITION ( 'NEZNÁMÝ', '', #48, #101 ) ;
#104 = DIRECTION ( 'NONE',  ( -0.000000000000000000, -0.000000000000000000, -1.000000000000000000 ) ) ;
#105 = DIRECTION ( 'NONE',  ( 0.000000000000000000, 0.000000000000000000, 1.000000000000000000 ) ) ;
#106 = CARTESIAN_POINT ( 'NONE',  ( 0.000000000000000000, 0.000000000000000000, 5.000000000000000000 ) ) ;
#107 = LOCAL_TIME ( 19, 32, 16.00000000000000000, #53 ) ;
#108 = EDGE_CURVE ( 'NONE', #205, #92, #42, .T. ) ;
#109 = EDGE_CURVE ( 'NONE', #92, #205, #199, .T. ) ;
#110 = APPROVAL_DATE_TIME ( #72, #248 ) ;
#111 = FACE_OUTER_BOUND ( 'NONE', #36, .T. ) ;
#112 = CARTESIAN_POINT ( 'NONE',  ( -7.000000000000000000, 0.000000000000000000, 5.000000000000000000 ) ) ;
#113 = PERSON_AND_ORGANIZATION ( #233, #151 ) ;
#114 = DIRECTION ( 'NONE',  ( 0.000000000000000000, 0.000000000000000000, 1.000000000000000000 ) ) ;
#115 = ORIENTED_EDGE ( 'NONE', *, *, #156, .T. ) ;
#116 = DIRECTION ( 'NONE',  ( 0.000000000000000000, 0.000000000000000000, 1.000000000000000000 ) ) ;
#117 = AXIS2_PLACEMENT_3D ( 'NONE', #254, #247, #219 ) ;
#118 = EDGE_LOOP ( 'NONE', ( #249, #20 ) ) ;
#119 = VERTEX_POINT ( 'NONE', #25 ) ;
#120 = EDGE_CURVE ( 'NONE', #255, #229, #55, .T. ) ;
#121 = APPROVAL_ROLE ( '' ) ;
#122 = AXIS2_PLACEMENT_3D ( 'NONE', #208, #154, #129 ) ;
#123 = COORDINATED_UNIVERSAL_TIME_OFFSET ( 1, 0, .AHEAD. ) ;
#124 = DIRECTION ( 'NONE',  ( -0.000000000000000000, -0.000000000000000000, -1.000000000000000000 ) ) ;
#125 = PLANE ( 'NONE',  #32 ) ;
#126 = CARTESIAN_POINT ( 'NONE',  ( 0.000000000000000000, 0.000000000000000000, 130.0000000000000000 ) ) ;
#127 = CIRCLE ( 'NONE', #6, 4.099999999999999645 ) ;
#128 = APPROVAL_PERSON_ORGANIZATION ( #226, #248, #186 ) ;
#129 = DIRECTION ( 'NONE',  ( 1.000000000000000000, 0.000000000000000000, 0.000000000000000000 ) ) ;
#130 = ORIENTED_EDGE ( 'NONE', *, *, #97, .F. ) ;
#131 = CC_DESIGN_PERSON_AND_ORGANIZATION_ASSIGNMENT ( #14, #71, ( #65 ) ) ;
#132 = CARTESIAN_POINT ( 'NONE',  ( 7.000000000000000000, 8.572527594031473190E-16, 5.000000000000000000 ) ) ;
#133 = ORIENTED_EDGE ( 'NONE', *, *, #165, .F. ) ;
#134 = SECURITY_CLASSIFICATION_LEVEL ( 'unclassified' ) ;
#135 = CARTESIAN_POINT ( 'NONE',  ( 4.099999999999999645, 5.021051876504147385E-16, 5.000000000000000000 ) ) ;
#136 = ORIENTED_EDGE ( 'NONE', *, *, #21, .F. ) ;
#137 = DIRECTION ( 'NONE',  ( 1.000000000000000000, 0.000000000000000000, 0.000000000000000000 ) ) ;
#138 = EDGE_LOOP ( 'NONE', ( #133, #80, #10, #246 ) ) ;
#139 = APPROVAL_ROLE ( '' ) ;
#140 = PERSON_AND_ORGANIZATION ( #233, #151 ) ;
#141 = VECTOR ( 'NONE', #150, 1000.000000000000000 ) ;
#142 = CALENDAR_DATE ( 2022, 7, 7 ) ;
#143 = EDGE_CURVE ( 'NONE', #255, #40, #127, .T. ) ;
#144 = CARTESIAN_POINT ( 'NONE',  ( 0.000000000000000000, 0.000000000000000000, 130.0000000000000000 ) ) ;
#145 = PERSON_AND_ORGANIZATION ( #233, #151 ) ;
#146 = CALENDAR_DATE ( 2022, 7, 7 ) ;
#147 = EDGE_CURVE ( 'NONE', #229, #38, #29, .T. ) ;
#148 = COORDINATED_UNIVERSAL_TIME_OFFSET ( 1, 0, .AHEAD. ) ;
#149 = AXIS2_PLACEMENT_3D ( 'NONE', #241, #124, #228 ) ;
#150 = DIRECTION ( 'NONE',  ( -0.000000000000000000, -0.000000000000000000, -1.000000000000000000 ) ) ;
#151 = ORGANIZATION ( 'NEURÈENÝ', 'NEURÈENÝ', '' ) ;
#152 = CARTESIAN_POINT ( 'NONE',  ( 0.000000000000000000, 0.000000000000000000, 5.000000000000000000 ) ) ;
#153 = ORIENTED_EDGE ( 'NONE', *, *, #147, .F. ) ;
#154 = DIRECTION ( 'NONE',  ( 0.000000000000000000, 0.000000000000000000, 1.000000000000000000 ) ) ;
#155 = ORIENTED_EDGE ( 'NONE', *, *, #120, .T. ) ;
#156 = EDGE_CURVE ( 'NONE', #40, #38, #37, .T. ) ;
#157 = DIRECTION ( 'NONE',  ( 0.000000000000000000, 0.000000000000000000, 1.000000000000000000 ) ) ;
#158 = ORIENTED_EDGE ( 'NONE', *, *, #90, .T. ) ;
#159 = DIRECTION ( 'NONE',  ( -1.000000000000000000, 0.000000000000000000, 0.000000000000000000 ) ) ;
#160 = DATE_AND_TIME ( #47, #217 ) ;
#161 = DIRECTION ( 'NONE',  ( 1.000000000000000000, 0.000000000000000000, 0.000000000000000000 ) ) ;
#162 = CARTESIAN_POINT ( 'NONE',  ( 0.000000000000000000, 0.000000000000000000, 5.000000000000000000 ) ) ;
#163 = DIRECTION ( 'NONE',  ( -0.000000000000000000, -0.000000000000000000, -1.000000000000000000 ) ) ;
#164 =( LENGTH_UNIT ( ) NAMED_UNIT ( * ) SI_UNIT ( .MILLI., .METRE. ) );
#165 = EDGE_CURVE ( 'NONE', #197, #119, #224, .T. ) ;
#166 = AXIS2_PLACEMENT_3D ( 'NONE', #41, #27, #161 ) ;
#167 = DIRECTION ( 'NONE',  ( 1.000000000000000000, 0.000000000000000000, 0.000000000000000000 ) ) ;
#168 = CARTESIAN_POINT ( 'NONE',  ( -4.099999999999999645, 0.000000000000000000, 5.000000000000000000 ) ) ;
#169 = PERSON_AND_ORGANIZATION_ROLE ( 'creator' ) ;
#170 = CC_DESIGN_APPROVAL ( #81, ( #48 ) ) ;
#171 = CYLINDRICAL_SURFACE ( 'NONE', #149, 7.000000000000000000 ) ;
#172 = FACE_BOUND ( 'NONE', #235, .T. ) ;
#173 = CARTESIAN_POINT ( 'NONE',  ( 0.000000000000000000, 0.000000000000000000, 130.0000000000000000 ) ) ;
#174 = LINE ( 'NONE', #98, #141 ) ;
#175 = DIRECTION ( 'NONE',  ( -1.000000000000000000, 0.000000000000000000, 0.000000000000000000 ) ) ;
#176 = AXIS2_PLACEMENT_3D ( 'NONE', #126, #163, #159 ) ;
#177 = CC_DESIGN_DATE_AND_TIME_ASSIGNMENT ( #178, #84, ( #103 ) ) ;
#178 = DATE_AND_TIME ( #146, #250 ) ;
#179 = CARTESIAN_POINT ( 'NONE',  ( -7.000000000000000000, 0.000000000000000000, 0.000000000000000000 ) ) ;
#180 = MECHANICAL_CONTEXT ( 'NONE', #183, 'mechanical' ) ;
#181 =( NAMED_UNIT ( * ) PLANE_ANGLE_UNIT ( ) SI_UNIT ( $, .RADIAN. ) );
#182 = CC_DESIGN_APPROVAL ( #248, ( #65 ) ) ;
#183 = APPLICATION_CONTEXT ( 'configuration controlled 3d designs of mechanical parts and assemblies' ) ;
#184 = CIRCLE ( 'NONE', #222, 4.099999999999999645 ) ;
#185 = ADVANCED_FACE ( 'NONE', ( #111 ), #39, .T. ) ;
#186 = APPROVAL_ROLE ( '' ) ;
#187 = CC_DESIGN_PERSON_AND_ORGANIZATION_ASSIGNMENT ( #5, #2, ( #1 ) ) ;
#188 = DATE_TIME_ROLE ( 'classification_date' ) ;
#189 = EDGE_LOOP ( 'NONE', ( #136, #227, #194, #58 ) ) ;
#190 = DIRECTION ( 'NONE',  ( 1.000000000000000000, 0.000000000000000000, 0.000000000000000000 ) ) ;
#191 = DIRECTION ( 'NONE',  ( -0.000000000000000000, -0.000000000000000000, -1.000000000000000000 ) ) ;
#192 = PERSON_AND_ORGANIZATION ( #233, #151 ) ;
#193 = CARTESIAN_POINT ( 'NONE',  ( 0.000000000000000000, 0.000000000000000000, 5.000000000000000000 ) ) ;
#194 = ORIENTED_EDGE ( 'NONE', *, *, #26, .T. ) ;
#195 = DIRECTION ( 'NONE',  ( 1.000000000000000000, 0.000000000000000000, -0.000000000000000000 ) ) ;
#196 = EDGE_LOOP ( 'NONE', ( #232, #130, #115, #213 ) ) ;
#197 = VERTEX_POINT ( 'NONE', #132 ) ;
#198 = AXIS2_PLACEMENT_3D ( 'NONE', #22, #102, #175 ) ;
#199 = CIRCLE ( 'NONE', #122, 7.000000000000000000 ) ;
#200 = DIRECTION ( 'NONE',  ( 1.000000000000000000, 0.000000000000000000, 0.000000000000000000 ) ) ;
#201 = EDGE_CURVE ( 'NONE', #38, #229, #184, .T. ) ;
#202 = VECTOR ( 'NONE', #33, 1000.000000000000000 ) ;
#203 = AXIS2_PLACEMENT_3D ( 'NONE', #106, #104, #218 ) ;
#204 = CARTESIAN_POINT ( 'NONE',  ( 4.099999999999999645, 5.021051876504147385E-16, 130.0000000000000000 ) ) ;
#205 = VERTEX_POINT ( 'NONE', #15 ) ;
#206 = DIRECTION ( 'NONE',  ( 0.000000000000000000, 0.000000000000000000, 1.000000000000000000 ) ) ;
#207 = EDGE_LOOP ( 'NONE', ( #158, #54 ) ) ;
#208 = CARTESIAN_POINT ( 'NONE',  ( 0.000000000000000000, 0.000000000000000000, 0.000000000000000000 ) ) ;
#209 = CLOSED_SHELL ( 'NONE', ( #9, #244, #69, #66, #230, #237, #185 ) ) ;
#210 = ORIENTED_EDGE ( 'NONE', *, *, #143, .T. ) ;
#211 = LOCAL_TIME ( 19, 32, 16.00000000000000000, #214 ) ;
#212 = CARTESIAN_POINT ( 'NONE',  ( -4.099999999999999645, 0.000000000000000000, 130.0000000000000000 ) ) ;
#213 = ORIENTED_EDGE ( 'NONE', *, *, #201, .T. ) ;
#214 = COORDINATED_UNIVERSAL_TIME_OFFSET ( 1, 0, .AHEAD. ) ;
#215 = CIRCLE ( 'NONE', #31, 4.099999999999999645 ) ;
#216 = PERSON_AND_ORGANIZATION_ROLE ( 'creator' ) ;
#217 = LOCAL_TIME ( 19, 32, 16.00000000000000000, #123 ) ;
#218 = DIRECTION ( 'NONE',  ( -1.000000000000000000, 0.000000000000000000, 0.000000000000000000 ) ) ;
#219 = DIRECTION ( 'NONE',  ( 1.000000000000000000, 0.000000000000000000, -0.000000000000000000 ) ) ;
#220 = CC_DESIGN_PERSON_AND_ORGANIZATION_ASSIGNMENT ( #145, #216, ( #103 ) ) ;
#221 = APPROVAL_STATUS ( 'not_yet_approved' ) ;
#222 = AXIS2_PLACEMENT_3D ( 'NONE', #35, #57, #200 ) ;
#223 = MANIFOLD_SOLID_BREP ( 'Pøidat vysunutím3', #209 ) ;
#224 = CIRCLE ( 'NONE', #44, 7.000000000000000000 ) ;
#225 = CC_DESIGN_PERSON_AND_ORGANIZATION_ASSIGNMENT ( #192, #91, ( #48 ) ) ;
#226 = PERSON_AND_ORGANIZATION ( #233, #151 ) ;
#227 = ORIENTED_EDGE ( 'NONE', *, *, #90, .F. ) ;
#228 = DIRECTION ( 'NONE',  ( -1.000000000000000000, 0.000000000000000000, 0.000000000000000000 ) ) ;
#229 = VERTEX_POINT ( 'NONE', #135 ) ;
#230 = ADVANCED_FACE ( 'NONE', ( #46 ), #125, .F. ) ;
#231 = DIRECTION ( 'NONE',  ( 1.000000000000000000, 0.000000000000000000, 0.000000000000000000 ) ) ;
#232 = ORIENTED_EDGE ( 'NONE', *, *, #120, .F. ) ;
#233 = PERSON ( 'NEURÈENÝ', 'NEURÈENÝ', 'NEURÈENÝ', ('NEURÈENÝ'), ('NEURÈENÝ'), ('NEURÈENÝ') ) ;
#234 = DIRECTION ( 'NONE',  ( -0.000000000000000000, -0.000000000000000000, -1.000000000000000000 ) ) ;
#235 = EDGE_LOOP ( 'NONE', ( #60, #153 ) ) ;
#236 = APPROVAL_PERSON_ORGANIZATION ( #240, #81, #139 ) ;
#237 = ADVANCED_FACE ( 'NONE', ( #19 ), #99, .T. ) ;
#238 = APPROVAL_STATUS ( 'not_yet_approved' ) ;
#239 = UNCERTAINTY_MEASURE_WITH_UNIT (LENGTH_MEASURE( 1.000000000000000082E-05 ), #164, 'distance_accuracy_value', 'NONE');
#240 = PERSON_AND_ORGANIZATION ( #233, #151 ) ;
#241 = CARTESIAN_POINT ( 'NONE',  ( 0.000000000000000000, 0.000000000000000000, 5.000000000000000000 ) ) ;
#242 = APPLICATION_PROTOCOL_DEFINITION ( 'international standard', 'config_control_design', 1994, #183 ) ;
#243 = CC_DESIGN_APPROVAL ( #51, ( #103 ) ) ;
#244 = ADVANCED_FACE ( 'NONE', ( #28 ), #3, .T. ) ;
#245 = CC_DESIGN_SECURITY_CLASSIFICATION ( #65, ( #48 ) ) ;
#246 = ORIENTED_EDGE ( 'NONE', *, *, #26, .F. ) ;
#247 = DIRECTION ( 'NONE',  ( 0.000000000000000000, 0.000000000000000000, 1.000000000000000000 ) ) ;
#248 = APPROVAL ( #11, 'NEURÈENÝ' ) ;
#249 = ORIENTED_EDGE ( 'NONE', *, *, #109, .F. ) ;
#250 = LOCAL_TIME ( 19, 32, 16.00000000000000000, #43 ) ;
#251 = CALENDAR_DATE ( 2022, 7, 7 ) ;
#252 = CARTESIAN_POINT ( 'NONE',  ( 0.000000000000000000, 0.000000000000000000, 5.000000000000000000 ) ) ;
#253 = FACE_OUTER_BOUND ( 'NONE', #207, .T. ) ;
#254 = CARTESIAN_POINT ( 'NONE',  ( 0.000000000000000000, 0.000000000000000000, 130.0000000000000000 ) ) ;
#255 = VERTEX_POINT ( 'NONE', #62 ) ;
ENDSEC;
END-ISO-10303-21;
