ISO-10303-21;
HEADER;
FILE_DESCRIPTION (( 'STEP AP203' ),
    '1' );
FILE_NAME ('b6aa.STEP',
    '2022-07-07T17:54:47',
    ( '' ),
    ( '' ),
    'SwSTEP 2.0',
    'SolidWorks 2019',
    '' );
FILE_SCHEMA (( 'CONFIG_CONTROL_DESIGN' ));
ENDSEC;

DATA;
#1 = LINE ( 'NONE', #21, #45 ) ;
#2 = ORIENTED_EDGE ( 'NONE', *, *, #129, .F. ) ;
#3 = CARTESIAN_POINT ( 'NONE',  ( -1.600000000000000089, 0.000000000000000000, 3.000000000000000000 ) ) ;
#4 = ORIENTED_EDGE ( 'NONE', *, *, #167, .F. ) ;
#5 = ORIENTED_EDGE ( 'NONE', *, *, #95, .T. ) ;
#6 = LOCAL_TIME ( 19, 54, 47.00000000000000000, #63 ) ;
#7 = AXIS2_PLACEMENT_3D ( 'NONE', #250, #220, #69 ) ;
#8 = CALENDAR_DATE ( 2022, 7, 7 ) ;
#9 = CIRCLE ( 'NONE', #42, 1.600000000000000089 ) ;
#10 = LOCAL_TIME ( 19, 54, 47.00000000000000000, #241 ) ;
#11 = CALENDAR_DATE ( 2022, 7, 7 ) ;
#12 = APPROVAL_DATE_TIME ( #213, #106 ) ;
#13 = SECURITY_CLASSIFICATION ( '', '', #49 ) ;
#14 = CARTESIAN_POINT ( 'NONE',  ( 3.000000000000000444, 3.673940397442060361E-16, 0.000000000000000000 ) ) ;
#15 = APPROVAL_ROLE ( '' ) ;
#16 = CARTESIAN_POINT ( 'NONE',  ( 0.000000000000000000, 0.000000000000000000, 318.0000000000000000 ) ) ;
#17 = FACE_OUTER_BOUND ( 'NONE', #20, .T. ) ;
#18 = DIRECTION ( 'NONE',  ( -0.000000000000000000, -0.000000000000000000, -1.000000000000000000 ) ) ;
#19 = FACE_OUTER_BOUND ( 'NONE', #168, .T. ) ;
#20 = EDGE_LOOP ( 'NONE', ( #105, #5, #200, #2 ) ) ;
#21 = CARTESIAN_POINT ( 'NONE',  ( 3.000000000000000444, 3.673940397442060361E-16, 3.000000000000000000 ) ) ;
#22 = ORIENTED_EDGE ( 'NONE', *, *, #79, .T. ) ;
#23 = CARTESIAN_POINT ( 'NONE',  ( 0.000000000000000000, 0.000000000000000000, 318.0000000000000000 ) ) ;
#24 = APPLICATION_CONTEXT ( 'configuration controlled 3d designs of mechanical parts and assemblies' ) ;
#25 = EDGE_LOOP ( 'NONE', ( #4, #81 ) ) ;
#26 = AXIS2_PLACEMENT_3D ( 'NONE', #163, #59, #236 ) ;
#27 = AXIS2_PLACEMENT_3D ( 'NONE', #117, #18, #140 ) ;
#28 = APPROVAL ( #190, 'NEURÈENÝ' ) ;
#29 = APPROVAL_STATUS ( 'not_yet_approved' ) ;
#30 = CARTESIAN_POINT ( 'NONE',  ( 0.000000000000000000, 0.000000000000000000, 3.000000000000000000 ) ) ;
#31 = DIRECTION ( 'NONE',  ( 1.000000000000000000, 0.000000000000000000, 0.000000000000000000 ) ) ;
#32 = AXIS2_PLACEMENT_3D ( 'NONE', #93, #111, #176 ) ;
#33 = PRODUCT_DEFINITION ( 'NEZNÁMÝ', '', #162, #76 ) ;
#34 = LINE ( 'NONE', #228, #174 ) ;
#35 =( NAMED_UNIT ( * ) PLANE_ANGLE_UNIT ( ) SI_UNIT ( $, .RADIAN. ) );
#36 = DIRECTION ( 'NONE',  ( -0.000000000000000000, -0.000000000000000000, -1.000000000000000000 ) ) ;
#37 = DIRECTION ( 'NONE',  ( -1.000000000000000000, 0.000000000000000000, 0.000000000000000000 ) ) ;
#38 = PLANE ( 'NONE',  #26 ) ;
#39 = VERTEX_POINT ( 'NONE', #146 ) ;
#40 = DIRECTION ( 'NONE',  ( -0.000000000000000000, -0.000000000000000000, -1.000000000000000000 ) ) ;
#41 = ORIENTED_EDGE ( 'NONE', *, *, #119, .T. ) ;
#42 = AXIS2_PLACEMENT_3D ( 'NONE', #16, #155, #31 ) ;
#43 = ADVANCED_FACE ( 'NONE', ( #223 ), #44, .T. ) ;
#44 = PLANE ( 'NONE',  #169 ) ;
#45 = VECTOR ( 'NONE', #36, 1000.000000000000000 ) ;
#46 = UNCERTAINTY_MEASURE_WITH_UNIT (LENGTH_MEASURE( 1.000000000000000082E-05 ), #52, 'distance_accuracy_value', 'NONE');
#47 = PERSON_AND_ORGANIZATION_ROLE ( 'classification_officer' ) ;
#48 = CIRCLE ( 'NONE', #195, 1.600000000000000089 ) ;
#49 = SECURITY_CLASSIFICATION_LEVEL ( 'unclassified' ) ;
#50 = CALENDAR_DATE ( 2022, 7, 7 ) ;
#51 = ADVANCED_FACE ( 'NONE', ( #57 ), #38, .F. ) ;
#52 =( LENGTH_UNIT ( ) NAMED_UNIT ( * ) SI_UNIT ( .MILLI., .METRE. ) );
#53 = CARTESIAN_POINT ( 'NONE',  ( 3.000000000000000444, 3.673940397442060361E-16, 3.000000000000000000 ) ) ;
#54 = AXIS2_PLACEMENT_3D ( 'NONE', #103, #178, #183 ) ;
#55 = CYLINDRICAL_SURFACE ( 'NONE', #170, 1.600000000000000089 ) ;
#56 = LOCAL_TIME ( 19, 54, 47.00000000000000000, #64 ) ;
#57 = FACE_OUTER_BOUND ( 'NONE', #25, .T. ) ;
#58 = ORIENTED_EDGE ( 'NONE', *, *, #192, .T. ) ;
#59 = DIRECTION ( 'NONE',  ( 0.000000000000000000, 0.000000000000000000, 1.000000000000000000 ) ) ;
#60 = EDGE_LOOP ( 'NONE', ( #142, #41 ) ) ;
#61 = ORIENTED_EDGE ( 'NONE', *, *, #132, .F. ) ;
#62 = DATE_TIME_ROLE ( 'creation_date' ) ;
#63 = COORDINATED_UNIVERSAL_TIME_OFFSET ( 1, 0, .AHEAD. ) ;
#64 = COORDINATED_UNIVERSAL_TIME_OFFSET ( 1, 0, .AHEAD. ) ;
#65 = DATE_AND_TIME ( #189, #182 ) ;
#66 = EDGE_CURVE ( 'NONE', #164, #203, #128, .T. ) ;
#67 = CARTESIAN_POINT ( 'NONE',  ( 1.600000000000000089, 1.959434878635765230E-16, 3.000000000000000000 ) ) ;
#68 = APPROVAL_PERSON_ORGANIZATION ( #226, #252, #149 ) ;
#69 = DIRECTION ( 'NONE',  ( 1.000000000000000000, 0.000000000000000000, 0.000000000000000000 ) ) ;
#70 = DIRECTION ( 'NONE',  ( 1.000000000000000000, 0.000000000000000000, -0.000000000000000000 ) ) ;
#71 = APPLICATION_CONTEXT ( 'configuration controlled 3d designs of mechanical parts and assemblies' ) ;
#72 = DIRECTION ( 'NONE',  ( 0.000000000000000000, 0.000000000000000000, 1.000000000000000000 ) ) ;
#73 = AXIS2_PLACEMENT_3D ( 'NONE', #120, #202, #165 ) ;
#74 = DIRECTION ( 'NONE',  ( -1.000000000000000000, 0.000000000000000000, 0.000000000000000000 ) ) ;
#75 = VERTEX_POINT ( 'NONE', #177 ) ;
#76 = DESIGN_CONTEXT ( 'detailed design', #71, 'design' ) ;
#77 = DIRECTION ( 'NONE',  ( -0.000000000000000000, -0.000000000000000000, -1.000000000000000000 ) ) ;
#78 = ORIENTED_EDGE ( 'NONE', *, *, #197, .T. ) ;
#79 = EDGE_CURVE ( 'NONE', #166, #164, #100, .T. ) ;
#80 = CARTESIAN_POINT ( 'NONE',  ( 0.000000000000000000, 0.000000000000000000, 3.000000000000000000 ) ) ;
#81 = ORIENTED_EDGE ( 'NONE', *, *, #148, .F. ) ;
#82 = CC_DESIGN_DATE_AND_TIME_ASSIGNMENT ( #188, #62, ( #33 ) ) ;
#83 = EDGE_LOOP ( 'NONE', ( #78, #58 ) ) ;
#84 = APPROVAL_DATE_TIME ( #211, #28 ) ;
#85 = CIRCLE ( 'NONE', #230, 3.000000000000000444 ) ;
#86 = CC_DESIGN_APPROVAL ( #28, ( #13 ) ) ;
#87 = APPROVAL_DATE_TIME ( #65, #252 ) ;
#88 = PERSON_AND_ORGANIZATION ( #145, #214 ) ;
#89 = DATE_AND_TIME ( #11, #6 ) ;
#90 = CC_DESIGN_SECURITY_CLASSIFICATION ( #13, ( #162 ) ) ;
#91 = PERSON_AND_ORGANIZATION ( #145, #214 ) ;
#92 = COORDINATED_UNIVERSAL_TIME_OFFSET ( 1, 0, .AHEAD. ) ;
#93 = CARTESIAN_POINT ( 'NONE',  ( 0.000000000000000000, 0.000000000000000000, 3.000000000000000000 ) ) ;
#94 = AXIS2_PLACEMENT_3D ( 'NONE', #80, #118, #37 ) ;
#95 = EDGE_CURVE ( 'NONE', #125, #237, #1, .T. ) ;
#96 = APPLICATION_PROTOCOL_DEFINITION ( 'international standard', 'config_control_design', 1994, #24 ) ;
#97 = LINE ( 'NONE', #238, #242 ) ;
#98 = CARTESIAN_POINT ( 'NONE',  ( 0.000000000000000000, 0.000000000000000000, 318.0000000000000000 ) ) ;
#99 = ADVANCED_FACE ( 'NONE', ( #19 ), #55, .T. ) ;
#100 = LINE ( 'NONE', #159, #160 ) ;
#101 = EDGE_LOOP ( 'NONE', ( #184, #179 ) ) ;
#102 = APPROVAL_PERSON_ORGANIZATION ( #131, #28, #171 ) ;
#103 = CARTESIAN_POINT ( 'NONE',  ( 0.000000000000000000, 0.000000000000000000, 0.000000000000000000 ) ) ;
#104 = ORIENTED_EDGE ( 'NONE', *, *, #221, .F. ) ;
#105 = ORIENTED_EDGE ( 'NONE', *, *, #119, .F. ) ;
#106 = APPROVAL ( #194, 'NEURÈENÝ' ) ;
#107 = AXIS2_PLACEMENT_3D ( 'NONE', #216, #154, #227 ) ;
#108 = CALENDAR_DATE ( 2022, 7, 7 ) ;
#109 = PERSON_AND_ORGANIZATION_ROLE ( 'design_supplier' ) ;
#110 = PRODUCT_RELATED_PRODUCT_CATEGORY ( 'detail', '', ( #136 ) ) ;
#111 = DIRECTION ( 'NONE',  ( 0.000000000000000000, 0.000000000000000000, 1.000000000000000000 ) ) ;
#112 = DATE_TIME_ROLE ( 'classification_date' ) ;
#113 = DIRECTION ( 'NONE',  ( 1.000000000000000000, 0.000000000000000000, 0.000000000000000000 ) ) ;
#114 = APPLICATION_PROTOCOL_DEFINITION ( 'international standard', 'config_control_design', 1994, #71 ) ;
#115 = ADVANCED_FACE ( 'NONE', ( #141 ), #217, .T. ) ;
#116 = ADVANCED_BREP_SHAPE_REPRESENTATION ( 'b6aa', ( #156, #107 ), #224 ) ;
#117 = CARTESIAN_POINT ( 'NONE',  ( 0.000000000000000000, 0.000000000000000000, 3.000000000000000000 ) ) ;
#118 = DIRECTION ( 'NONE',  ( -0.000000000000000000, -0.000000000000000000, -1.000000000000000000 ) ) ;
#119 = EDGE_CURVE ( 'NONE', #125, #186, #218, .T. ) ;
#120 = CARTESIAN_POINT ( 'NONE',  ( 0.000000000000000000, 0.000000000000000000, 3.000000000000000000 ) ) ;
#121 = DIRECTION ( 'NONE',  ( 1.000000000000000000, 0.000000000000000000, 0.000000000000000000 ) ) ;
#122 = ORIENTED_EDGE ( 'NONE', *, *, #221, .T. ) ;
#123 = AXIS2_PLACEMENT_3D ( 'NONE', #30, #247, #70 ) ;
#124 = LOCAL_TIME ( 19, 54, 47.00000000000000000, #225 ) ;
#125 = VERTEX_POINT ( 'NONE', #53 ) ;
#126 = EDGE_LOOP ( 'NONE', ( #181, #122, #204, #147 ) ) ;
#127 = ADVANCED_FACE ( 'NONE', ( #17 ), #157, .T. ) ;
#128 = CIRCLE ( 'NONE', #7, 1.600000000000000089 ) ;
#129 = EDGE_CURVE ( 'NONE', #186, #75, #97, .T. ) ;
#130 = AXIS2_PLACEMENT_3D ( 'NONE', #98, #251, #74 ) ;
#131 = PERSON_AND_ORGANIZATION ( #145, #214 ) ;
#132 = EDGE_CURVE ( 'NONE', #186, #125, #208, .T. ) ;
#133 = PERSON_AND_ORGANIZATION ( #145, #214 ) ;
#134 = FACE_OUTER_BOUND ( 'NONE', #60, .T. ) ;
#135 = PLANE ( 'NONE',  #123 ) ;
#136 = PRODUCT ( 'b6aa', 'b6aa', '', ( #158 ) ) ;
#137 = PERSON_AND_ORGANIZATION_ROLE ( 'design_owner' ) ;
#138 = CARTESIAN_POINT ( 'NONE',  ( -1.600000000000000089, 0.000000000000000000, 318.0000000000000000 ) ) ;
#139 = CLOSED_SHELL ( 'NONE', ( #151, #127, #115, #172, #51, #99, #43 ) ) ;
#140 = DIRECTION ( 'NONE',  ( -1.000000000000000000, 0.000000000000000000, 0.000000000000000000 ) ) ;
#141 = FACE_OUTER_BOUND ( 'NONE', #205, .T. ) ;
#142 = ORIENTED_EDGE ( 'NONE', *, *, #132, .T. ) ;
#143 = DIRECTION ( 'NONE',  ( -1.000000000000000000, 0.000000000000000000, 0.000000000000000000 ) ) ;
#144 = ORIENTED_EDGE ( 'NONE', *, *, #66, .T. ) ;
#145 = PERSON ( 'NEURÈENÝ', 'NEURÈENÝ', 'NEURÈENÝ', ('NEURÈENÝ'), ('NEURÈENÝ'), ('NEURÈENÝ') ) ;
#146 = CARTESIAN_POINT ( 'NONE',  ( 1.600000000000000089, 1.959434878635765230E-16, 318.0000000000000000 ) ) ;
#147 = ORIENTED_EDGE ( 'NONE', *, *, #79, .F. ) ;
#148 = EDGE_CURVE ( 'NONE', #237, #75, #255, .T. ) ;
#149 = APPROVAL_ROLE ( '' ) ;
#150 = PERSON_AND_ORGANIZATION ( #145, #214 ) ;
#151 = ADVANCED_FACE ( 'NONE', ( #253 ), #219, .T. ) ;
#152 = DIRECTION ( 'NONE',  ( 0.000000000000000000, 0.000000000000000000, 1.000000000000000000 ) ) ;
#153 = AXIS2_PLACEMENT_3D ( 'NONE', #199, #233, #121 ) ;
#154 = DIRECTION ( 'NONE',  ( 0.000000000000000000, 0.000000000000000000, 1.000000000000000000 ) ) ;
#155 = DIRECTION ( 'NONE',  ( 0.000000000000000000, 0.000000000000000000, 1.000000000000000000 ) ) ;
#156 = MANIFOLD_SOLID_BREP ( 'Pøidat vysunutím3', #139 ) ;
#157 = CYLINDRICAL_SURFACE ( 'NONE', #27, 3.000000000000000444 ) ;
#158 = MECHANICAL_CONTEXT ( 'NONE', #24, 'mechanical' ) ;
#159 = CARTESIAN_POINT ( 'NONE',  ( -1.600000000000000089, 0.000000000000000000, 318.0000000000000000 ) ) ;
#160 = VECTOR ( 'NONE', #198, 1000.000000000000000 ) ;
#161 = FACE_BOUND ( 'NONE', #101, .T. ) ;
#162 = PRODUCT_DEFINITION_FORMATION_WITH_SPECIFIED_SOURCE ( 'LIBOVOLNÝ', '', #136, .NOT_KNOWN. ) ;
#163 = CARTESIAN_POINT ( 'NONE',  ( 0.000000000000000000, 0.000000000000000000, 0.000000000000000000 ) ) ;
#164 = VERTEX_POINT ( 'NONE', #3 ) ;
#165 = DIRECTION ( 'NONE',  ( 1.000000000000000000, 0.000000000000000000, 0.000000000000000000 ) ) ;
#166 = VERTEX_POINT ( 'NONE', #138 ) ;
#167 = EDGE_CURVE ( 'NONE', #75, #237, #85, .T. ) ;
#168 = EDGE_LOOP ( 'NONE', ( #104, #222, #22, #144 ) ) ;
#169 = AXIS2_PLACEMENT_3D ( 'NONE', #23, #185, #235 ) ;
#170 = AXIS2_PLACEMENT_3D ( 'NONE', #180, #77, #143 ) ;
#171 = APPROVAL_ROLE ( '' ) ;
#172 = ADVANCED_FACE ( 'NONE', ( #161, #134 ), #135, .T. ) ;
#173 = PERSON_AND_ORGANIZATION_ROLE ( 'creator' ) ;
#174 = VECTOR ( 'NONE', #231, 1000.000000000000000 ) ;
#175 = PERSON_AND_ORGANIZATION_ROLE ( 'creator' ) ;
#176 = DIRECTION ( 'NONE',  ( 1.000000000000000000, 0.000000000000000000, 0.000000000000000000 ) ) ;
#177 = CARTESIAN_POINT ( 'NONE',  ( -3.000000000000000444, 0.000000000000000000, 0.000000000000000000 ) ) ;
#178 = DIRECTION ( 'NONE',  ( 0.000000000000000000, 0.000000000000000000, 1.000000000000000000 ) ) ;
#179 = ORIENTED_EDGE ( 'NONE', *, *, #232, .F. ) ;
#180 = CARTESIAN_POINT ( 'NONE',  ( 0.000000000000000000, 0.000000000000000000, 318.0000000000000000 ) ) ;
#181 = ORIENTED_EDGE ( 'NONE', *, *, #192, .F. ) ;
#182 = LOCAL_TIME ( 19, 54, 47.00000000000000000, #92 ) ;
#183 = DIRECTION ( 'NONE',  ( 1.000000000000000000, 0.000000000000000000, 0.000000000000000000 ) ) ;
#184 = ORIENTED_EDGE ( 'NONE', *, *, #66, .F. ) ;
#185 = DIRECTION ( 'NONE',  ( 0.000000000000000000, 0.000000000000000000, 1.000000000000000000 ) ) ;
#186 = VERTEX_POINT ( 'NONE', #215 ) ;
#187 = CC_DESIGN_APPROVAL ( #106, ( #33 ) ) ;
#188 = DATE_AND_TIME ( #8, #124 ) ;
#189 = CALENDAR_DATE ( 2022, 7, 7 ) ;
#190 = APPROVAL_STATUS ( 'not_yet_approved' ) ;
#191 = CARTESIAN_POINT ( 'NONE',  ( 0.000000000000000000, 0.000000000000000000, 318.0000000000000000 ) ) ;
#192 = EDGE_CURVE ( 'NONE', #39, #166, #9, .T. ) ;
#193 =( NAMED_UNIT ( * ) SI_UNIT ( $, .STERADIAN. ) SOLID_ANGLE_UNIT ( ) );
#194 = APPROVAL_STATUS ( 'not_yet_approved' ) ;
#195 = AXIS2_PLACEMENT_3D ( 'NONE', #191, #152, #113 ) ;
#196 = CARTESIAN_POINT ( 'NONE',  ( 0.000000000000000000, 0.000000000000000000, 0.000000000000000000 ) ) ;
#197 = EDGE_CURVE ( 'NONE', #166, #39, #48, .T. ) ;
#198 = DIRECTION ( 'NONE',  ( -0.000000000000000000, -0.000000000000000000, -1.000000000000000000 ) ) ;
#199 = CARTESIAN_POINT ( 'NONE',  ( 0.000000000000000000, 0.000000000000000000, 3.000000000000000000 ) ) ;
#200 = ORIENTED_EDGE ( 'NONE', *, *, #148, .T. ) ;
#201 = CC_DESIGN_DATE_AND_TIME_ASSIGNMENT ( #89, #112, ( #13 ) ) ;
#202 = DIRECTION ( 'NONE',  ( 0.000000000000000000, 0.000000000000000000, 1.000000000000000000 ) ) ;
#203 = VERTEX_POINT ( 'NONE', #67 ) ;
#204 = ORIENTED_EDGE ( 'NONE', *, *, #232, .T. ) ;
#205 = EDGE_LOOP ( 'NONE', ( #240, #61, #254, #239 ) ) ;
#206 = CC_DESIGN_PERSON_AND_ORGANIZATION_ASSIGNMENT ( #150, #109, ( #162 ) ) ;
#207 = APPROVAL_PERSON_ORGANIZATION ( #244, #106, #15 ) ;
#208 = CIRCLE ( 'NONE', #153, 3.000000000000000444 ) ;
#209 = CC_DESIGN_PERSON_AND_ORGANIZATION_ASSIGNMENT ( #133, #47, ( #13 ) ) ;
#210 = PRODUCT_DEFINITION_SHAPE ( 'NONE', 'NONE',  #33 ) ;
#211 = DATE_AND_TIME ( #108, #10 ) ;
#212 = CC_DESIGN_PERSON_AND_ORGANIZATION_ASSIGNMENT ( #229, #137, ( #136 ) ) ;
#213 = DATE_AND_TIME ( #50, #56 ) ;
#214 = ORGANIZATION ( 'NEURÈENÝ', 'NEURÈENÝ', '' ) ;
#215 = CARTESIAN_POINT ( 'NONE',  ( -3.000000000000000444, 0.000000000000000000, 3.000000000000000000 ) ) ;
#216 = CARTESIAN_POINT ( 'NONE',  ( 0.000000000000000000, 0.000000000000000000, 0.000000000000000000 ) ) ;
#217 = CYLINDRICAL_SURFACE ( 'NONE', #94, 3.000000000000000444 ) ;
#218 = CIRCLE ( 'NONE', #73, 3.000000000000000444 ) ;
#219 = CYLINDRICAL_SURFACE ( 'NONE', #130, 1.600000000000000089 ) ;
#220 = DIRECTION ( 'NONE',  ( 0.000000000000000000, 0.000000000000000000, 1.000000000000000000 ) ) ;
#221 = EDGE_CURVE ( 'NONE', #39, #203, #34, .T. ) ;
#222 = ORIENTED_EDGE ( 'NONE', *, *, #197, .F. ) ;
#223 = FACE_OUTER_BOUND ( 'NONE', #83, .T. ) ;
#224 =( GEOMETRIC_REPRESENTATION_CONTEXT ( 3 ) GLOBAL_UNCERTAINTY_ASSIGNED_CONTEXT ( ( #46 ) ) GLOBAL_UNIT_ASSIGNED_CONTEXT ( ( #52, #35, #193 ) ) REPRESENTATION_CONTEXT ( 'NONE', 'WORKASPACE' ) );
#225 = COORDINATED_UNIVERSAL_TIME_OFFSET ( 1, 0, .AHEAD. ) ;
#226 = PERSON_AND_ORGANIZATION ( #145, #214 ) ;
#227 = DIRECTION ( 'NONE',  ( 1.000000000000000000, 0.000000000000000000, 0.000000000000000000 ) ) ;
#228 = CARTESIAN_POINT ( 'NONE',  ( 1.600000000000000089, 1.959434878635765230E-16, 318.0000000000000000 ) ) ;
#229 = PERSON_AND_ORGANIZATION ( #145, #214 ) ;
#230 = AXIS2_PLACEMENT_3D ( 'NONE', #196, #72, #234 ) ;
#231 = DIRECTION ( 'NONE',  ( -0.000000000000000000, -0.000000000000000000, -1.000000000000000000 ) ) ;
#232 = EDGE_CURVE ( 'NONE', #203, #164, #246, .T. ) ;
#233 = DIRECTION ( 'NONE',  ( 0.000000000000000000, 0.000000000000000000, 1.000000000000000000 ) ) ;
#234 = DIRECTION ( 'NONE',  ( 1.000000000000000000, 0.000000000000000000, 0.000000000000000000 ) ) ;
#235 = DIRECTION ( 'NONE',  ( 1.000000000000000000, 0.000000000000000000, -0.000000000000000000 ) ) ;
#236 = DIRECTION ( 'NONE',  ( 1.000000000000000000, 0.000000000000000000, -0.000000000000000000 ) ) ;
#237 = VERTEX_POINT ( 'NONE', #14 ) ;
#238 = CARTESIAN_POINT ( 'NONE',  ( -3.000000000000000444, 0.000000000000000000, 3.000000000000000000 ) ) ;
#239 = ORIENTED_EDGE ( 'NONE', *, *, #167, .T. ) ;
#240 = ORIENTED_EDGE ( 'NONE', *, *, #95, .F. ) ;
#241 = COORDINATED_UNIVERSAL_TIME_OFFSET ( 1, 0, .AHEAD. ) ;
#242 = VECTOR ( 'NONE', #40, 1000.000000000000000 ) ;
#243 = CC_DESIGN_PERSON_AND_ORGANIZATION_ASSIGNMENT ( #88, #173, ( #162 ) ) ;
#244 = PERSON_AND_ORGANIZATION ( #145, #214 ) ;
#245 = SHAPE_DEFINITION_REPRESENTATION ( #210, #116 ) ;
#246 = CIRCLE ( 'NONE', #32, 1.600000000000000089 ) ;
#247 = DIRECTION ( 'NONE',  ( 0.000000000000000000, 0.000000000000000000, 1.000000000000000000 ) ) ;
#248 = CC_DESIGN_PERSON_AND_ORGANIZATION_ASSIGNMENT ( #91, #175, ( #33 ) ) ;
#249 = CC_DESIGN_APPROVAL ( #252, ( #162 ) ) ;
#250 = CARTESIAN_POINT ( 'NONE',  ( 0.000000000000000000, 0.000000000000000000, 3.000000000000000000 ) ) ;
#251 = DIRECTION ( 'NONE',  ( -0.000000000000000000, -0.000000000000000000, -1.000000000000000000 ) ) ;
#252 = APPROVAL ( #29, 'NEURÈENÝ' ) ;
#253 = FACE_OUTER_BOUND ( 'NONE', #126, .T. ) ;
#254 = ORIENTED_EDGE ( 'NONE', *, *, #129, .T. ) ;
#255 = CIRCLE ( 'NONE', #54, 3.000000000000000444 ) ;
ENDSEC;
END-ISO-10303-21;
