ISO-10303-21;
HEADER;
FILE_DESCRIPTION (( 'STEP AP203' ),
    '1' );
FILE_NAME ('a875.STEP',
    '2022-07-07T17:48:32',
    ( '' ),
    ( '' ),
    'SwSTEP 2.0',
    'SolidWorks 2019',
    '' );
FILE_SCHEMA (( 'CONFIG_CONTROL_DESIGN' ));
ENDSEC;

DATA;
#1 = APPROVAL_DATE_TIME ( #80, #171 ) ;
#2 = VECTOR ( 'NONE', #18, 1000.000000000000000 ) ;
#3 = ORIENTED_EDGE ( 'NONE', *, *, #225, .T. ) ;
#4 = DATE_AND_TIME ( #188, #76 ) ;
#5 = ADVANCED_FACE ( 'NONE', ( #11 ), #94, .T. ) ;
#6 = COORDINATED_UNIVERSAL_TIME_OFFSET ( 1, 0, .AHEAD. ) ;
#7 = EDGE_LOOP ( 'NONE', ( #67, #129 ) ) ;
#8 = ADVANCED_FACE ( 'NONE', ( #16 ), #131, .F. ) ;
#9 = VECTOR ( 'NONE', #223, 1000.000000000000000 ) ;
#10 = DIRECTION ( 'NONE',  ( 1.000000000000000000, 0.000000000000000000, 0.000000000000000000 ) ) ;
#11 = FACE_OUTER_BOUND ( 'NONE', #130, .T. ) ;
#12 = PLANE ( 'NONE',  #118 ) ;
#13 = CYLINDRICAL_SURFACE ( 'NONE', #167, 4.000000000000000000 ) ;
#14 = CARTESIAN_POINT ( 'NONE',  ( -2.250000000000000000, 0.000000000000000000, 318.0000000000000000 ) ) ;
#15 = AXIS2_PLACEMENT_3D ( 'NONE', #247, #153, #235 ) ;
#16 = FACE_OUTER_BOUND ( 'NONE', #246, .T. ) ;
#17 = CARTESIAN_POINT ( 'NONE',  ( 0.000000000000000000, 0.000000000000000000, 3.000000000000000000 ) ) ;
#18 = DIRECTION ( 'NONE',  ( -0.000000000000000000, -0.000000000000000000, -1.000000000000000000 ) ) ;
#19 = CARTESIAN_POINT ( 'NONE',  ( 0.000000000000000000, 0.000000000000000000, 318.0000000000000000 ) ) ;
#20 = EDGE_CURVE ( 'NONE', #155, #106, #186, .T. ) ;
#21 = APPROVAL_DATE_TIME ( #207, #232 ) ;
#22 = PERSON_AND_ORGANIZATION ( #215, #220 ) ;
#23 = PRODUCT_RELATED_PRODUCT_CATEGORY ( 'detail', '', ( #173 ) ) ;
#24 = AXIS2_PLACEMENT_3D ( 'NONE', #115, #205, #219 ) ;
#25 = EDGE_LOOP ( 'NONE', ( #204, #3, #72, #245 ) ) ;
#26 = PERSON_AND_ORGANIZATION_ROLE ( 'creator' ) ;
#27 = ORIENTED_EDGE ( 'NONE', *, *, #86, .F. ) ;
#28 = CC_DESIGN_DATE_AND_TIME_ASSIGNMENT ( #161, #99, ( #243 ) ) ;
#29 = AXIS2_PLACEMENT_3D ( 'NONE', #96, #33, #233 ) ;
#30 = DIRECTION ( 'NONE',  ( -0.000000000000000000, -0.000000000000000000, -1.000000000000000000 ) ) ;
#31 = ORIENTED_EDGE ( 'NONE', *, *, #20, .T. ) ;
#32 = CARTESIAN_POINT ( 'NONE',  ( -2.250000000000000000, 0.000000000000000000, 3.000000000000000000 ) ) ;
#33 = DIRECTION ( 'NONE',  ( 0.000000000000000000, 0.000000000000000000, 1.000000000000000000 ) ) ;
#34 = MECHANICAL_CONTEXT ( 'NONE', #75, 'mechanical' ) ;
#35 = CARTESIAN_POINT ( 'NONE',  ( -4.000000000000000000, 0.000000000000000000, 0.000000000000000000 ) ) ;
#36 = FACE_OUTER_BOUND ( 'NONE', #103, .T. ) ;
#37 = PRODUCT_DEFINITION_SHAPE ( 'NONE', 'NONE',  #243 ) ;
#38 =( GEOMETRIC_REPRESENTATION_CONTEXT ( 3 ) GLOBAL_UNCERTAINTY_ASSIGNED_CONTEXT ( ( #88 ) ) GLOBAL_UNIT_ASSIGNED_CONTEXT ( ( #95, #249, #157 ) ) REPRESENTATION_CONTEXT ( 'NONE', 'WORKASPACE' ) );
#39 = CARTESIAN_POINT ( 'NONE',  ( 0.000000000000000000, 0.000000000000000000, 318.0000000000000000 ) ) ;
#40 = CC_DESIGN_PERSON_AND_ORGANIZATION_ASSIGNMENT ( #242, #143, ( #226 ) ) ;
#41 = CIRCLE ( 'NONE', #15, 4.000000000000000000 ) ;
#42 = LOCAL_TIME ( 19, 48, 32.00000000000000000, #105 ) ;
#43 = EDGE_CURVE ( 'NONE', #192, #221, #93, .T. ) ;
#44 = APPROVAL_STATUS ( 'not_yet_approved' ) ;
#45 = ORIENTED_EDGE ( 'NONE', *, *, #152, .F. ) ;
#46 = ADVANCED_FACE ( 'NONE', ( #150 ), #70, .T. ) ;
#47 = DIRECTION ( 'NONE',  ( -1.000000000000000000, 0.000000000000000000, 0.000000000000000000 ) ) ;
#48 = CIRCLE ( 'NONE', #24, 4.000000000000000000 ) ;
#49 = LINE ( 'NONE', #194, #107 ) ;
#50 = CARTESIAN_POINT ( 'NONE',  ( 0.000000000000000000, 0.000000000000000000, 318.0000000000000000 ) ) ;
#51 = CARTESIAN_POINT ( 'NONE',  ( -4.000000000000000000, 0.000000000000000000, 3.000000000000000000 ) ) ;
#52 = DIRECTION ( 'NONE',  ( 1.000000000000000000, 0.000000000000000000, 0.000000000000000000 ) ) ;
#53 = CC_DESIGN_APPROVAL ( #214, ( #226 ) ) ;
#54 = CARTESIAN_POINT ( 'NONE',  ( 4.000000000000000000, 4.898587196589412829E-16, 3.000000000000000000 ) ) ;
#55 = MANIFOLD_SOLID_BREP ( 'Pøidat vysunutím3', #224 ) ;
#56 = CALENDAR_DATE ( 2022, 7, 7 ) ;
#57 = AXIS2_PLACEMENT_3D ( 'NONE', #73, #97, #52 ) ;
#58 = DATE_AND_TIME ( #101, #170 ) ;
#59 = PERSON_AND_ORGANIZATION ( #215, #220 ) ;
#60 = ADVANCED_FACE ( 'NONE', ( #113 ), #13, .T. ) ;
#61 = VERTEX_POINT ( 'NONE', #114 ) ;
#62 = LOCAL_TIME ( 19, 48, 32.00000000000000000, #208 ) ;
#63 = ORIENTED_EDGE ( 'NONE', *, *, #86, .T. ) ;
#64 = AXIS2_PLACEMENT_3D ( 'NONE', #174, #156, #151 ) ;
#65 = DIRECTION ( 'NONE',  ( 0.000000000000000000, 0.000000000000000000, 1.000000000000000000 ) ) ;
#66 = AXIS2_PLACEMENT_3D ( 'NONE', #248, #112, #197 ) ;
#67 = ORIENTED_EDGE ( 'NONE', *, *, #152, .T. ) ;
#68 = DIRECTION ( 'NONE',  ( -0.000000000000000000, -0.000000000000000000, -1.000000000000000000 ) ) ;
#69 = DIRECTION ( 'NONE',  ( 1.000000000000000000, 0.000000000000000000, -0.000000000000000000 ) ) ;
#70 = CYLINDRICAL_SURFACE ( 'NONE', #169, 4.000000000000000000 ) ;
#71 = LINE ( 'NONE', #201, #9 ) ;
#72 = ORIENTED_EDGE ( 'NONE', *, *, #74, .T. ) ;
#73 = CARTESIAN_POINT ( 'NONE',  ( 0.000000000000000000, 0.000000000000000000, 3.000000000000000000 ) ) ;
#74 = EDGE_CURVE ( 'NONE', #177, #110, #210, .T. ) ;
#75 = APPLICATION_CONTEXT ( 'configuration controlled 3d designs of mechanical parts and assemblies' ) ;
#76 = LOCAL_TIME ( 19, 48, 32.00000000000000000, #142 ) ;
#77 = APPROVAL_ROLE ( '' ) ;
#78 = CC_DESIGN_DATE_AND_TIME_ASSIGNMENT ( #4, #126, ( #199 ) ) ;
#79 = APPROVAL_DATE_TIME ( #58, #214 ) ;
#80 = DATE_AND_TIME ( #127, #62 ) ;
#81 = EDGE_CURVE ( 'NONE', #221, #192, #102, .T. ) ;
#82 = ORIENTED_EDGE ( 'NONE', *, *, #81, .F. ) ;
#83 = PERSON_AND_ORGANIZATION_ROLE ( 'classification_officer' ) ;
#84 = AXIS2_PLACEMENT_3D ( 'NONE', #39, #234, #202 ) ;
#85 = CIRCLE ( 'NONE', #57, 4.000000000000000000 ) ;
#86 = EDGE_CURVE ( 'NONE', #106, #155, #211, .T. ) ;
#87 = ORIENTED_EDGE ( 'NONE', *, *, #43, .T. ) ;
#88 = UNCERTAINTY_MEASURE_WITH_UNIT (LENGTH_MEASURE( 1.000000000000000082E-05 ), #95, 'distance_accuracy_value', 'NONE');
#89 = DIRECTION ( 'NONE',  ( -1.000000000000000000, 0.000000000000000000, 0.000000000000000000 ) ) ;
#90 = EDGE_CURVE ( 'NONE', #221, #106, #49, .T. ) ;
#91 = DIRECTION ( 'NONE',  ( 0.000000000000000000, 0.000000000000000000, 1.000000000000000000 ) ) ;
#92 = PLANE ( 'NONE',  #163 ) ;
#93 = CIRCLE ( 'NONE', #162, 2.250000000000000000 ) ;
#94 = CYLINDRICAL_SURFACE ( 'NONE', #176, 2.250000000000000000 ) ;
#95 =( LENGTH_UNIT ( ) NAMED_UNIT ( * ) SI_UNIT ( .MILLI., .METRE. ) );
#96 = CARTESIAN_POINT ( 'NONE',  ( 0.000000000000000000, 0.000000000000000000, 3.000000000000000000 ) ) ;
#97 = DIRECTION ( 'NONE',  ( 0.000000000000000000, 0.000000000000000000, 1.000000000000000000 ) ) ;
#98 = DIRECTION ( 'NONE',  ( -0.000000000000000000, -0.000000000000000000, -1.000000000000000000 ) ) ;
#99 = DATE_TIME_ROLE ( 'creation_date' ) ;
#100 = APPLICATION_CONTEXT ( 'configuration controlled 3d designs of mechanical parts and assemblies' ) ;
#101 = CALENDAR_DATE ( 2022, 7, 7 ) ;
#102 = CIRCLE ( 'NONE', #84, 2.250000000000000000 ) ;
#103 = EDGE_LOOP ( 'NONE', ( #187, #165, #228, #31 ) ) ;
#104 = PERSON_AND_ORGANIZATION ( #215, #220 ) ;
#105 = COORDINATED_UNIVERSAL_TIME_OFFSET ( 1, 0, .AHEAD. ) ;
#106 = VERTEX_POINT ( 'NONE', #172 ) ;
#107 = VECTOR ( 'NONE', #68, 1000.000000000000000 ) ;
#108 = AXIS2_PLACEMENT_3D ( 'NONE', #198, #178, #252 ) ;
#109 = EDGE_CURVE ( 'NONE', #110, #177, #41, .T. ) ;
#110 = VERTEX_POINT ( 'NONE', #35 ) ;
#111 = LOCAL_TIME ( 19, 48, 32.00000000000000000, #166 ) ;
#112 = DIRECTION ( 'NONE',  ( 0.000000000000000000, 0.000000000000000000, 1.000000000000000000 ) ) ;
#113 = FACE_OUTER_BOUND ( 'NONE', #181, .T. ) ;
#114 = CARTESIAN_POINT ( 'NONE',  ( -4.000000000000000000, 0.000000000000000000, 3.000000000000000000 ) ) ;
#115 = CARTESIAN_POINT ( 'NONE',  ( 0.000000000000000000, 0.000000000000000000, 3.000000000000000000 ) ) ;
#116 = ORIENTED_EDGE ( 'NONE', *, *, #124, .T. ) ;
#117 = DIRECTION ( 'NONE',  ( -0.000000000000000000, -0.000000000000000000, -1.000000000000000000 ) ) ;
#118 = AXIS2_PLACEMENT_3D ( 'NONE', #19, #132, #203 ) ;
#119 = CC_DESIGN_PERSON_AND_ORGANIZATION_ASSIGNMENT ( #59, #212, ( #173 ) ) ;
#120 = DIRECTION ( 'NONE',  ( -0.000000000000000000, -0.000000000000000000, -1.000000000000000000 ) ) ;
#121 = CARTESIAN_POINT ( 'NONE',  ( 0.000000000000000000, 0.000000000000000000, 3.000000000000000000 ) ) ;
#122 = ADVANCED_BREP_SHAPE_REPRESENTATION ( 'a875', ( #55, #108 ), #38 ) ;
#123 = CYLINDRICAL_SURFACE ( 'NONE', #206, 2.250000000000000000 ) ;
#124 = EDGE_CURVE ( 'NONE', #61, #110, #236, .T. ) ;
#125 = APPROVAL_ROLE ( '' ) ;
#126 = DATE_TIME_ROLE ( 'classification_date' ) ;
#127 = CALENDAR_DATE ( 2022, 7, 7 ) ;
#128 = ORIENTED_EDGE ( 'NONE', *, *, #81, .T. ) ;
#129 = ORIENTED_EDGE ( 'NONE', *, *, #144, .T. ) ;
#130 = EDGE_LOOP ( 'NONE', ( #82, #237, #63, #190 ) ) ;
#131 = PLANE ( 'NONE',  #213 ) ;
#132 = DIRECTION ( 'NONE',  ( 0.000000000000000000, 0.000000000000000000, 1.000000000000000000 ) ) ;
#133 = EDGE_LOOP ( 'NONE', ( #87, #128 ) ) ;
#134 = APPLICATION_PROTOCOL_DEFINITION ( 'international standard', 'config_control_design', 1994, #75 ) ;
#135 = ADVANCED_FACE ( 'NONE', ( #154 ), #12, .T. ) ;
#136 = ORIENTED_EDGE ( 'NONE', *, *, #109, .F. ) ;
#137 = CARTESIAN_POINT ( 'NONE',  ( 4.000000000000000000, 4.898587196589412829E-16, 0.000000000000000000 ) ) ;
#138 = DIRECTION ( 'NONE',  ( 0.000000000000000000, 0.000000000000000000, 1.000000000000000000 ) ) ;
#139 = ADVANCED_FACE ( 'NONE', ( #180, #196 ), #92, .T. ) ;
#140 = CALENDAR_DATE ( 2022, 7, 7 ) ;
#141 = CC_DESIGN_SECURITY_CLASSIFICATION ( #199, ( #226 ) ) ;
#142 = COORDINATED_UNIVERSAL_TIME_OFFSET ( 1, 0, .AHEAD. ) ;
#143 = PERSON_AND_ORGANIZATION_ROLE ( 'creator' ) ;
#144 = EDGE_CURVE ( 'NONE', #146, #61, #48, .T. ) ;
#145 = SECURITY_CLASSIFICATION_LEVEL ( 'unclassified' ) ;
#146 = VERTEX_POINT ( 'NONE', #54 ) ;
#147 = CC_DESIGN_APPROVAL ( #232, ( #199 ) ) ;
#148 = DESIGN_CONTEXT ( 'detailed design', #100, 'design' ) ;
#149 = ORIENTED_EDGE ( 'NONE', *, *, #225, .F. ) ;
#150 = FACE_OUTER_BOUND ( 'NONE', #25, .T. ) ;
#151 = DIRECTION ( 'NONE',  ( 1.000000000000000000, 0.000000000000000000, 0.000000000000000000 ) ) ;
#152 = EDGE_CURVE ( 'NONE', #61, #146, #85, .T. ) ;
#153 = DIRECTION ( 'NONE',  ( 0.000000000000000000, 0.000000000000000000, 1.000000000000000000 ) ) ;
#154 = FACE_OUTER_BOUND ( 'NONE', #133, .T. ) ;
#155 = VERTEX_POINT ( 'NONE', #32 ) ;
#156 = DIRECTION ( 'NONE',  ( 0.000000000000000000, 0.000000000000000000, 1.000000000000000000 ) ) ;
#157 =( NAMED_UNIT ( * ) SI_UNIT ( $, .STERADIAN. ) SOLID_ANGLE_UNIT ( ) );
#158 = ORIENTED_EDGE ( 'NONE', *, *, #74, .F. ) ;
#159 = LINE ( 'NONE', #14, #244 ) ;
#160 = APPROVAL_PERSON_ORGANIZATION ( #184, #171, #241 ) ;
#161 = DATE_AND_TIME ( #140, #42 ) ;
#162 = AXIS2_PLACEMENT_3D ( 'NONE', #218, #65, #10 ) ;
#163 = AXIS2_PLACEMENT_3D ( 'NONE', #121, #138, #69 ) ;
#164 = APPLICATION_PROTOCOL_DEFINITION ( 'international standard', 'config_control_design', 1994, #100 ) ;
#165 = ORIENTED_EDGE ( 'NONE', *, *, #43, .F. ) ;
#166 = COORDINATED_UNIVERSAL_TIME_OFFSET ( 1, 0, .AHEAD. ) ;
#167 = AXIS2_PLACEMENT_3D ( 'NONE', #17, #30, #251 ) ;
#168 = ADVANCED_FACE ( 'NONE', ( #36 ), #123, .T. ) ;
#169 = AXIS2_PLACEMENT_3D ( 'NONE', #179, #216, #89 ) ;
#170 = LOCAL_TIME ( 19, 48, 32.00000000000000000, #6 ) ;
#171 = APPROVAL ( #255, 'NEURÈENÝ' ) ;
#172 = CARTESIAN_POINT ( 'NONE',  ( 2.250000000000000000, 2.755455298081544285E-16, 3.000000000000000000 ) ) ;
#173 = PRODUCT ( 'a875', 'a875', '', ( #34 ) ) ;
#174 = CARTESIAN_POINT ( 'NONE',  ( 0.000000000000000000, 0.000000000000000000, 0.000000000000000000 ) ) ;
#175 = DIRECTION ( 'NONE',  ( -1.000000000000000000, 0.000000000000000000, 0.000000000000000000 ) ) ;
#176 = AXIS2_PLACEMENT_3D ( 'NONE', #50, #120, #47 ) ;
#177 = VERTEX_POINT ( 'NONE', #137 ) ;
#178 = DIRECTION ( 'NONE',  ( 0.000000000000000000, 0.000000000000000000, 1.000000000000000000 ) ) ;
#179 = CARTESIAN_POINT ( 'NONE',  ( 0.000000000000000000, 0.000000000000000000, 3.000000000000000000 ) ) ;
#180 = FACE_BOUND ( 'NONE', #231, .T. ) ;
#181 = EDGE_LOOP ( 'NONE', ( #149, #45, #116, #200 ) ) ;
#182 = CARTESIAN_POINT ( 'NONE',  ( 0.000000000000000000, 0.000000000000000000, 318.0000000000000000 ) ) ;
#183 = CC_DESIGN_PERSON_AND_ORGANIZATION_ASSIGNMENT ( #229, #83, ( #199 ) ) ;
#184 = PERSON_AND_ORGANIZATION ( #215, #220 ) ;
#185 = SHAPE_DEFINITION_REPRESENTATION ( #37, #122 ) ;
#186 = CIRCLE ( 'NONE', #29, 2.250000000000000000 ) ;
#187 = ORIENTED_EDGE ( 'NONE', *, *, #90, .F. ) ;
#188 = CALENDAR_DATE ( 2022, 7, 7 ) ;
#189 = APPROVAL_STATUS ( 'not_yet_approved' ) ;
#190 = ORIENTED_EDGE ( 'NONE', *, *, #191, .F. ) ;
#191 = EDGE_CURVE ( 'NONE', #192, #155, #159, .T. ) ;
#192 = VERTEX_POINT ( 'NONE', #238 ) ;
#193 = CC_DESIGN_APPROVAL ( #171, ( #243 ) ) ;
#194 = CARTESIAN_POINT ( 'NONE',  ( 2.250000000000000000, 2.755455298081544285E-16, 318.0000000000000000 ) ) ;
#195 = ORIENTED_EDGE ( 'NONE', *, *, #20, .F. ) ;
#196 = FACE_OUTER_BOUND ( 'NONE', #7, .T. ) ;
#197 = DIRECTION ( 'NONE',  ( 1.000000000000000000, 0.000000000000000000, 0.000000000000000000 ) ) ;
#198 = CARTESIAN_POINT ( 'NONE',  ( 0.000000000000000000, 0.000000000000000000, 0.000000000000000000 ) ) ;
#199 = SECURITY_CLASSIFICATION ( '', '', #145 ) ;
#200 = ORIENTED_EDGE ( 'NONE', *, *, #109, .T. ) ;
#201 = CARTESIAN_POINT ( 'NONE',  ( 4.000000000000000000, 4.898587196589412829E-16, 3.000000000000000000 ) ) ;
#202 = DIRECTION ( 'NONE',  ( 1.000000000000000000, 0.000000000000000000, 0.000000000000000000 ) ) ;
#203 = DIRECTION ( 'NONE',  ( 1.000000000000000000, 0.000000000000000000, -0.000000000000000000 ) ) ;
#204 = ORIENTED_EDGE ( 'NONE', *, *, #144, .F. ) ;
#205 = DIRECTION ( 'NONE',  ( 0.000000000000000000, 0.000000000000000000, 1.000000000000000000 ) ) ;
#206 = AXIS2_PLACEMENT_3D ( 'NONE', #182, #98, #175 ) ;
#207 = DATE_AND_TIME ( #56, #111 ) ;
#208 = COORDINATED_UNIVERSAL_TIME_OFFSET ( 1, 0, .AHEAD. ) ;
#209 = PERSON_AND_ORGANIZATION ( #215, #220 ) ;
#210 = CIRCLE ( 'NONE', #64, 4.000000000000000000 ) ;
#211 = CIRCLE ( 'NONE', #66, 2.250000000000000000 ) ;
#212 = PERSON_AND_ORGANIZATION_ROLE ( 'design_owner' ) ;
#213 = AXIS2_PLACEMENT_3D ( 'NONE', #217, #91, #253 ) ;
#214 = APPROVAL ( #189, 'NEURÈENÝ' ) ;
#215 = PERSON ( 'NEURÈENÝ', 'NEURÈENÝ', 'NEURÈENÝ', ('NEURÈENÝ'), ('NEURÈENÝ'), ('NEURÈENÝ') ) ;
#216 = DIRECTION ( 'NONE',  ( -0.000000000000000000, -0.000000000000000000, -1.000000000000000000 ) ) ;
#217 = CARTESIAN_POINT ( 'NONE',  ( 0.000000000000000000, 0.000000000000000000, 0.000000000000000000 ) ) ;
#218 = CARTESIAN_POINT ( 'NONE',  ( 0.000000000000000000, 0.000000000000000000, 318.0000000000000000 ) ) ;
#219 = DIRECTION ( 'NONE',  ( 1.000000000000000000, 0.000000000000000000, 0.000000000000000000 ) ) ;
#220 = ORGANIZATION ( 'NEURÈENÝ', 'NEURÈENÝ', '' ) ;
#221 = VERTEX_POINT ( 'NONE', #254 ) ;
#222 = CC_DESIGN_PERSON_AND_ORGANIZATION_ASSIGNMENT ( #209, #240, ( #226 ) ) ;
#223 = DIRECTION ( 'NONE',  ( -0.000000000000000000, -0.000000000000000000, -1.000000000000000000 ) ) ;
#224 = CLOSED_SHELL ( 'NONE', ( #5, #46, #60, #139, #8, #168, #135 ) ) ;
#225 = EDGE_CURVE ( 'NONE', #146, #177, #71, .T. ) ;
#226 = PRODUCT_DEFINITION_FORMATION_WITH_SPECIFIED_SOURCE ( 'LIBOVOLNÝ', '', #173, .NOT_KNOWN. ) ;
#227 = PERSON_AND_ORGANIZATION ( #215, #220 ) ;
#228 = ORIENTED_EDGE ( 'NONE', *, *, #191, .T. ) ;
#229 = PERSON_AND_ORGANIZATION ( #215, #220 ) ;
#230 = APPROVAL_PERSON_ORGANIZATION ( #227, #232, #77 ) ;
#231 = EDGE_LOOP ( 'NONE', ( #195, #27 ) ) ;
#232 = APPROVAL ( #44, 'NEURÈENÝ' ) ;
#233 = DIRECTION ( 'NONE',  ( 1.000000000000000000, 0.000000000000000000, 0.000000000000000000 ) ) ;
#234 = DIRECTION ( 'NONE',  ( 0.000000000000000000, 0.000000000000000000, 1.000000000000000000 ) ) ;
#235 = DIRECTION ( 'NONE',  ( 1.000000000000000000, 0.000000000000000000, 0.000000000000000000 ) ) ;
#236 = LINE ( 'NONE', #51, #2 ) ;
#237 = ORIENTED_EDGE ( 'NONE', *, *, #90, .T. ) ;
#238 = CARTESIAN_POINT ( 'NONE',  ( -2.250000000000000000, 0.000000000000000000, 318.0000000000000000 ) ) ;
#239 = CC_DESIGN_PERSON_AND_ORGANIZATION_ASSIGNMENT ( #22, #26, ( #243 ) ) ;
#240 = PERSON_AND_ORGANIZATION_ROLE ( 'design_supplier' ) ;
#241 = APPROVAL_ROLE ( '' ) ;
#242 = PERSON_AND_ORGANIZATION ( #215, #220 ) ;
#243 = PRODUCT_DEFINITION ( 'NEZNÁMÝ', '', #226, #148 ) ;
#244 = VECTOR ( 'NONE', #117, 1000.000000000000000 ) ;
#245 = ORIENTED_EDGE ( 'NONE', *, *, #124, .F. ) ;
#246 = EDGE_LOOP ( 'NONE', ( #136, #158 ) ) ;
#247 = CARTESIAN_POINT ( 'NONE',  ( 0.000000000000000000, 0.000000000000000000, 0.000000000000000000 ) ) ;
#248 = CARTESIAN_POINT ( 'NONE',  ( 0.000000000000000000, 0.000000000000000000, 3.000000000000000000 ) ) ;
#249 =( NAMED_UNIT ( * ) PLANE_ANGLE_UNIT ( ) SI_UNIT ( $, .RADIAN. ) );
#250 = APPROVAL_PERSON_ORGANIZATION ( #104, #214, #125 ) ;
#251 = DIRECTION ( 'NONE',  ( -1.000000000000000000, 0.000000000000000000, 0.000000000000000000 ) ) ;
#252 = DIRECTION ( 'NONE',  ( 1.000000000000000000, 0.000000000000000000, 0.000000000000000000 ) ) ;
#253 = DIRECTION ( 'NONE',  ( 1.000000000000000000, 0.000000000000000000, -0.000000000000000000 ) ) ;
#254 = CARTESIAN_POINT ( 'NONE',  ( 2.250000000000000000, 2.755455298081544285E-16, 318.0000000000000000 ) ) ;
#255 = APPROVAL_STATUS ( 'not_yet_approved' ) ;
ENDSEC;
END-ISO-10303-21;
