ISO-10303-21;
HEADER;
FILE_DESCRIPTION (( 'STEP AP203' ),
    '1' );
FILE_NAME ('55a0.STEP',
    '2022-07-07T17:58:10',
    ( '' ),
    ( '' ),
    'SwSTEP 2.0',
    'SolidWorks 2019',
    '' );
FILE_SCHEMA (( 'CONFIG_CONTROL_DESIGN' ));
ENDSEC;

DATA;
#1 = ORIENTED_EDGE ( 'NONE', *, *, #13, .T. ) ;
#2 = AXIS2_PLACEMENT_3D ( 'NONE', #167, #245, #247 ) ;
#3 = CIRCLE ( 'NONE', #45, 2.500000000000000000 ) ;
#4 = AXIS2_PLACEMENT_3D ( 'NONE', #147, #223, #201 ) ;
#5 = COORDINATED_UNIVERSAL_TIME_OFFSET ( 1, 0, .AHEAD. ) ;
#6 = PERSON_AND_ORGANIZATION ( #99, #176 ) ;
#7 = EDGE_LOOP ( 'NONE', ( #149, #38, #71, #1 ) ) ;
#8 = CLOSED_SHELL ( 'NONE', ( #248, #78, #111, #100, #131, #159, #215 ) ) ;
#9 = DIRECTION ( 'NONE',  ( -0.000000000000000000, -0.000000000000000000, -1.000000000000000000 ) ) ;
#10 = PERSON_AND_ORGANIZATION ( #99, #176 ) ;
#11 = FACE_OUTER_BOUND ( 'NONE', #53, .T. ) ;
#12 = VERTEX_POINT ( 'NONE', #55 ) ;
#13 = EDGE_CURVE ( 'NONE', #187, #113, #236, .T. ) ;
#14 = DIRECTION ( 'NONE',  ( 1.000000000000000000, 0.000000000000000000, 0.000000000000000000 ) ) ;
#15 = VERTEX_POINT ( 'NONE', #114 ) ;
#16 = CARTESIAN_POINT ( 'NONE',  ( 1.250000000000000000, 1.530808498934191571E-16, 202.0000000000000000 ) ) ;
#17 =( GEOMETRIC_REPRESENTATION_CONTEXT ( 3 ) GLOBAL_UNCERTAINTY_ASSIGNED_CONTEXT ( ( #214 ) ) GLOBAL_UNIT_ASSIGNED_CONTEXT ( ( #86, #62, #123 ) ) REPRESENTATION_CONTEXT ( 'NONE', 'WORKASPACE' ) );
#18 = EDGE_CURVE ( 'NONE', #12, #171, #3, .T. ) ;
#19 = DIRECTION ( 'NONE',  ( 0.000000000000000000, 0.000000000000000000, 1.000000000000000000 ) ) ;
#20 = EDGE_LOOP ( 'NONE', ( #44, #183 ) ) ;
#21 = APPROVAL ( #181, 'NEURÈENÝ' ) ;
#22 = PERSON_AND_ORGANIZATION ( #99, #176 ) ;
#23 = AXIS2_PLACEMENT_3D ( 'NONE', #126, #207, #40 ) ;
#24 = CC_DESIGN_DATE_AND_TIME_ASSIGNMENT ( #48, #125, ( #115 ) ) ;
#25 = ORIENTED_EDGE ( 'NONE', *, *, #18, .T. ) ;
#26 = PERSON_AND_ORGANIZATION ( #99, #176 ) ;
#27 = VERTEX_POINT ( 'NONE', #63 ) ;
#28 = PERSON_AND_ORGANIZATION ( #99, #176 ) ;
#29 = DIRECTION ( 'NONE',  ( 0.000000000000000000, 0.000000000000000000, 1.000000000000000000 ) ) ;
#30 = DIRECTION ( 'NONE',  ( 1.000000000000000000, 0.000000000000000000, 0.000000000000000000 ) ) ;
#31 = APPROVAL_STATUS ( 'not_yet_approved' ) ;
#32 = DIRECTION ( 'NONE',  ( 0.000000000000000000, 0.000000000000000000, 1.000000000000000000 ) ) ;
#33 = CARTESIAN_POINT ( 'NONE',  ( -1.250000000000000000, 0.000000000000000000, 202.0000000000000000 ) ) ;
#34 = CC_DESIGN_PERSON_AND_ORGANIZATION_ASSIGNMENT ( #6, #60, ( #115 ) ) ;
#35 = CC_DESIGN_APPROVAL ( #21, ( #77 ) ) ;
#36 = FACE_BOUND ( 'NONE', #151, .T. ) ;
#37 = CARTESIAN_POINT ( 'NONE',  ( -1.250000000000000000, 0.000000000000000000, 2.000000000000000000 ) ) ;
#38 = ORIENTED_EDGE ( 'NONE', *, *, #191, .F. ) ;
#39 = PLANE ( 'NONE',  #156 ) ;
#40 = DIRECTION ( 'NONE',  ( 1.000000000000000000, 0.000000000000000000, 0.000000000000000000 ) ) ;
#41 = CIRCLE ( 'NONE', #175, 2.500000000000000000 ) ;
#42 = DIRECTION ( 'NONE',  ( 1.000000000000000000, 0.000000000000000000, -0.000000000000000000 ) ) ;
#43 = AXIS2_PLACEMENT_3D ( 'NONE', #166, #246, #135 ) ;
#44 = ORIENTED_EDGE ( 'NONE', *, *, #139, .F. ) ;
#45 = AXIS2_PLACEMENT_3D ( 'NONE', #51, #29, #205 ) ;
#46 = APPROVAL_PERSON_ORGANIZATION ( #22, #121, #145 ) ;
#47 = VECTOR ( 'NONE', #184, 1000.000000000000000 ) ;
#48 = DATE_AND_TIME ( #220, #196 ) ;
#49 = ORIENTED_EDGE ( 'NONE', *, *, #173, .F. ) ;
#50 = CARTESIAN_POINT ( 'NONE',  ( 1.250000000000000000, 1.530808498934191571E-16, 2.000000000000000000 ) ) ;
#51 = CARTESIAN_POINT ( 'NONE',  ( 0.000000000000000000, 0.000000000000000000, 0.000000000000000000 ) ) ;
#52 = CARTESIAN_POINT ( 'NONE',  ( 0.000000000000000000, 0.000000000000000000, 0.000000000000000000 ) ) ;
#53 = EDGE_LOOP ( 'NONE', ( #146, #179, #25, #49 ) ) ;
#54 = DIRECTION ( 'NONE',  ( -0.000000000000000000, -0.000000000000000000, -1.000000000000000000 ) ) ;
#55 = CARTESIAN_POINT ( 'NONE',  ( 2.500000000000000000, 3.061616997868383141E-16, 0.000000000000000000 ) ) ;
#56 = DIRECTION ( 'NONE',  ( 1.000000000000000000, 0.000000000000000000, 0.000000000000000000 ) ) ;
#57 = APPROVAL_PERSON_ORGANIZATION ( #28, #234, #157 ) ;
#58 = EDGE_CURVE ( 'NONE', #113, #187, #93, .T. ) ;
#59 = CALENDAR_DATE ( 2022, 7, 7 ) ;
#60 = PERSON_AND_ORGANIZATION_ROLE ( 'classification_officer' ) ;
#61 = CC_DESIGN_APPROVAL ( #234, ( #115 ) ) ;
#62 =( NAMED_UNIT ( * ) PLANE_ANGLE_UNIT ( ) SI_UNIT ( $, .RADIAN. ) );
#63 = CARTESIAN_POINT ( 'NONE',  ( -1.250000000000000000, 0.000000000000000000, 202.0000000000000000 ) ) ;
#64 = CARTESIAN_POINT ( 'NONE',  ( 1.250000000000000000, 1.530808498934191571E-16, 202.0000000000000000 ) ) ;
#65 = APPLICATION_PROTOCOL_DEFINITION ( 'international standard', 'config_control_design', 1994, #76 ) ;
#66 = CARTESIAN_POINT ( 'NONE',  ( 0.000000000000000000, 0.000000000000000000, 2.000000000000000000 ) ) ;
#67 = FACE_OUTER_BOUND ( 'NONE', #198, .T. ) ;
#68 = CARTESIAN_POINT ( 'NONE',  ( 2.500000000000000000, 3.061616997868383141E-16, 2.000000000000000000 ) ) ;
#69 = AXIS2_PLACEMENT_3D ( 'NONE', #206, #19, #30 ) ;
#70 = DIRECTION ( 'NONE',  ( 0.000000000000000000, 0.000000000000000000, 1.000000000000000000 ) ) ;
#71 = ORIENTED_EDGE ( 'NONE', *, *, #229, .T. ) ;
#72 = DIRECTION ( 'NONE',  ( -0.000000000000000000, -0.000000000000000000, -1.000000000000000000 ) ) ;
#73 = AXIS2_PLACEMENT_3D ( 'NONE', #155, #249, #56 ) ;
#74 = ORIENTED_EDGE ( 'NONE', *, *, #173, .T. ) ;
#75 = AXIS2_PLACEMENT_3D ( 'NONE', #185, #87, #169 ) ;
#76 = APPLICATION_CONTEXT ( 'configuration controlled 3d designs of mechanical parts and assemblies' ) ;
#77 = PRODUCT_DEFINITION_FORMATION_WITH_SPECIFIED_SOURCE ( 'LIBOVOLNÝ', '', #213, .NOT_KNOWN. ) ;
#78 = ADVANCED_FACE ( 'NONE', ( #11 ), #85, .T. ) ;
#79 = DATE_AND_TIME ( #104, #172 ) ;
#80 = DIRECTION ( 'NONE',  ( 1.000000000000000000, 0.000000000000000000, 0.000000000000000000 ) ) ;
#81 = PERSON_AND_ORGANIZATION_ROLE ( 'design_owner' ) ;
#82 = ORIENTED_EDGE ( 'NONE', *, *, #139, .T. ) ;
#83 = CYLINDRICAL_SURFACE ( 'NONE', #252, 2.500000000000000000 ) ;
#84 = PERSON_AND_ORGANIZATION_ROLE ( 'creator' ) ;
#85 = CYLINDRICAL_SURFACE ( 'NONE', #2, 2.500000000000000000 ) ;
#86 =( LENGTH_UNIT ( ) NAMED_UNIT ( * ) SI_UNIT ( .MILLI., .METRE. ) );
#87 = DIRECTION ( 'NONE',  ( 0.000000000000000000, 0.000000000000000000, 1.000000000000000000 ) ) ;
#88 = CARTESIAN_POINT ( 'NONE',  ( -2.500000000000000000, 0.000000000000000000, 0.000000000000000000 ) ) ;
#89 = ORIENTED_EDGE ( 'NONE', *, *, #13, .F. ) ;
#90 = CC_DESIGN_SECURITY_CLASSIFICATION ( #115, ( #77 ) ) ;
#91 = FACE_OUTER_BOUND ( 'NONE', #20, .T. ) ;
#92 = EDGE_CURVE ( 'NONE', #15, #110, #140, .T. ) ;
#93 = CIRCLE ( 'NONE', #105, 1.250000000000000000 ) ;
#94 = CC_DESIGN_PERSON_AND_ORGANIZATION_ASSIGNMENT ( #26, #84, ( #77 ) ) ;
#95 = CARTESIAN_POINT ( 'NONE',  ( 0.000000000000000000, 0.000000000000000000, 0.000000000000000000 ) ) ;
#96 = CIRCLE ( 'NONE', #43, 1.250000000000000000 ) ;
#97 = DIRECTION ( 'NONE',  ( 0.000000000000000000, 0.000000000000000000, 1.000000000000000000 ) ) ;
#98 = ORIENTED_EDGE ( 'NONE', *, *, #191, .T. ) ;
#99 = PERSON ( 'NEURÈENÝ', 'NEURÈENÝ', 'NEURÈENÝ', ('NEURÈENÝ'), ('NEURÈENÝ'), ('NEURÈENÝ') ) ;
#100 = ADVANCED_FACE ( 'NONE', ( #36, #202 ), #107, .T. ) ;
#101 = PERSON_AND_ORGANIZATION ( #99, #176 ) ;
#102 = ORIENTED_EDGE ( 'NONE', *, *, #194, .F. ) ;
#103 = LINE ( 'NONE', #188, #241 ) ;
#104 = CALENDAR_DATE ( 2022, 7, 7 ) ;
#105 = AXIS2_PLACEMENT_3D ( 'NONE', #200, #32, #106 ) ;
#106 = DIRECTION ( 'NONE',  ( 1.000000000000000000, 0.000000000000000000, 0.000000000000000000 ) ) ;
#107 = PLANE ( 'NONE',  #75 ) ;
#108 = CARTESIAN_POINT ( 'NONE',  ( 0.000000000000000000, 0.000000000000000000, 2.000000000000000000 ) ) ;
#110 = VERTEX_POINT ( 'NONE', #68 ) ;
#109 = APPLICATION_CONTEXT ( 'configuration controlled 3d designs of mechanical parts and assemblies' ) ;
#111 = ADVANCED_FACE ( 'NONE', ( #228 ), #83, .T. ) ;
#112 = CARTESIAN_POINT ( 'NONE',  ( 0.000000000000000000, 0.000000000000000000, 0.000000000000000000 ) ) ;
#113 = VERTEX_POINT ( 'NONE', #50 ) ;
#114 = CARTESIAN_POINT ( 'NONE',  ( -2.500000000000000000, 0.000000000000000000, 2.000000000000000000 ) ) ;
#115 = SECURITY_CLASSIFICATION ( '', '', #244 ) ;
#116 = LINE ( 'NONE', #33, #160 ) ;
#117 = AXIS2_PLACEMENT_3D ( 'NONE', #128, #70, #42 ) ;
#118 = EDGE_CURVE ( 'NONE', #227, #113, #226, .T. ) ;
#119 = SHAPE_DEFINITION_REPRESENTATION ( #144, #208 ) ;
#120 = LOCAL_TIME ( 19, 58, 10.00000000000000000, #237 ) ;
#121 = APPROVAL ( #31, 'NEURÈENÝ' ) ;
#122 = AXIS2_PLACEMENT_3D ( 'NONE', #66, #132, #129 ) ;
#123 =( NAMED_UNIT ( * ) SI_UNIT ( $, .STERADIAN. ) SOLID_ANGLE_UNIT ( ) );
#124 = CC_DESIGN_PERSON_AND_ORGANIZATION_ASSIGNMENT ( #10, #178, ( #177 ) ) ;
#125 = DATE_TIME_ROLE ( 'classification_date' ) ;
#126 = CARTESIAN_POINT ( 'NONE',  ( 0.000000000000000000, 0.000000000000000000, 2.000000000000000000 ) ) ;
#127 = APPROVAL_DATE_TIME ( #79, #121 ) ;
#128 = CARTESIAN_POINT ( 'NONE',  ( 0.000000000000000000, 0.000000000000000000, 202.0000000000000000 ) ) ;
#129 = DIRECTION ( 'NONE',  ( 1.000000000000000000, 0.000000000000000000, 0.000000000000000000 ) ) ;
#130 = CYLINDRICAL_SURFACE ( 'NONE', #254, 1.250000000000000000 ) ;
#131 = ADVANCED_FACE ( 'NONE', ( #91 ), #39, .F. ) ;
#132 = DIRECTION ( 'NONE',  ( 0.000000000000000000, 0.000000000000000000, 1.000000000000000000 ) ) ;
#133 = DIRECTION ( 'NONE',  ( -1.000000000000000000, 0.000000000000000000, 0.000000000000000000 ) ) ;
#134 = ORIENTED_EDGE ( 'NONE', *, *, #92, .F. ) ;
#135 = DIRECTION ( 'NONE',  ( 1.000000000000000000, 0.000000000000000000, 0.000000000000000000 ) ) ;
#136 = CIRCLE ( 'NONE', #73, 1.250000000000000000 ) ;
#137 = LOCAL_TIME ( 19, 58, 10.00000000000000000, #138 ) ;
#138 = COORDINATED_UNIVERSAL_TIME_OFFSET ( 1, 0, .AHEAD. ) ;
#139 = EDGE_CURVE ( 'NONE', #171, #12, #41, .T. ) ;
#140 = CIRCLE ( 'NONE', #122, 2.500000000000000000 ) ;
#141 = CC_DESIGN_APPROVAL ( #121, ( #177 ) ) ;
#142 = VECTOR ( 'NONE', #150, 1000.000000000000000 ) ;
#143 = COORDINATED_UNIVERSAL_TIME_OFFSET ( 1, 0, .AHEAD. ) ;
#144 = PRODUCT_DEFINITION_SHAPE ( 'NONE', 'NONE',  #177 ) ;
#145 = APPROVAL_ROLE ( '' ) ;
#146 = ORIENTED_EDGE ( 'NONE', *, *, #162, .F. ) ;
#147 = CARTESIAN_POINT ( 'NONE',  ( 0.000000000000000000, 0.000000000000000000, 202.0000000000000000 ) ) ;
#148 = APPROVAL_ROLE ( '' ) ;
#149 = ORIENTED_EDGE ( 'NONE', *, *, #118, .F. ) ;
#150 = DIRECTION ( 'NONE',  ( -0.000000000000000000, -0.000000000000000000, -1.000000000000000000 ) ) ;
#151 = EDGE_LOOP ( 'NONE', ( #89, #230 ) ) ;
#152 = AXIS2_PLACEMENT_3D ( 'NONE', #95, #97, #80 ) ;
#153 = PLANE ( 'NONE',  #117 ) ;
#154 = EDGE_LOOP ( 'NONE', ( #189, #225 ) ) ;
#155 = CARTESIAN_POINT ( 'NONE',  ( 0.000000000000000000, 0.000000000000000000, 202.0000000000000000 ) ) ;
#156 = AXIS2_PLACEMENT_3D ( 'NONE', #52, #243, #231 ) ;
#157 = APPROVAL_ROLE ( '' ) ;
#158 = MANIFOLD_SOLID_BREP ( 'Pøidat vysunutím3', #8 ) ;
#159 = ADVANCED_FACE ( 'NONE', ( #251 ), #130, .T. ) ;
#160 = VECTOR ( 'NONE', #9, 1000.000000000000000 ) ;
#161 = CALENDAR_DATE ( 2022, 7, 7 ) ;
#162 = EDGE_CURVE ( 'NONE', #110, #15, #209, .T. ) ;
#163 = CALENDAR_DATE ( 2022, 7, 7 ) ;
#164 = APPROVAL_DATE_TIME ( #219, #21 ) ;
#165 = ORIENTED_EDGE ( 'NONE', *, *, #192, .F. ) ;
#166 = CARTESIAN_POINT ( 'NONE',  ( 0.000000000000000000, 0.000000000000000000, 202.0000000000000000 ) ) ;
#167 = CARTESIAN_POINT ( 'NONE',  ( 0.000000000000000000, 0.000000000000000000, 2.000000000000000000 ) ) ;
#168 = FACE_OUTER_BOUND ( 'NONE', #212, .T. ) ;
#169 = DIRECTION ( 'NONE',  ( 1.000000000000000000, 0.000000000000000000, -0.000000000000000000 ) ) ;
#170 = DIRECTION ( 'NONE',  ( 0.000000000000000000, 0.000000000000000000, 1.000000000000000000 ) ) ;
#171 = VERTEX_POINT ( 'NONE', #88 ) ;
#172 = LOCAL_TIME ( 19, 58, 10.00000000000000000, #5 ) ;
#173 = EDGE_CURVE ( 'NONE', #15, #171, #103, .T. ) ;
#174 = DIRECTION ( 'NONE',  ( -0.000000000000000000, -0.000000000000000000, -1.000000000000000000 ) ) ;
#175 = AXIS2_PLACEMENT_3D ( 'NONE', #112, #170, #14 ) ;
#176 = ORGANIZATION ( 'NEURÈENÝ', 'NEURÈENÝ', '' ) ;
#177 = PRODUCT_DEFINITION ( 'NEZNÁMÝ', '', #77, #240 ) ;
#178 = PERSON_AND_ORGANIZATION_ROLE ( 'creator' ) ;
#179 = ORIENTED_EDGE ( 'NONE', *, *, #194, .T. ) ;
#180 = CARTESIAN_POINT ( 'NONE',  ( 2.500000000000000000, 3.061616997868383141E-16, 2.000000000000000000 ) ) ;
#181 = APPROVAL_STATUS ( 'not_yet_approved' ) ;
#182 = CC_DESIGN_PERSON_AND_ORGANIZATION_ASSIGNMENT ( #224, #81, ( #213 ) ) ;
#183 = ORIENTED_EDGE ( 'NONE', *, *, #18, .F. ) ;
#184 = DIRECTION ( 'NONE',  ( -0.000000000000000000, -0.000000000000000000, -1.000000000000000000 ) ) ;
#185 = CARTESIAN_POINT ( 'NONE',  ( 0.000000000000000000, 0.000000000000000000, 2.000000000000000000 ) ) ;
#186 = DIRECTION ( 'NONE',  ( -1.000000000000000000, 0.000000000000000000, 0.000000000000000000 ) ) ;
#187 = VERTEX_POINT ( 'NONE', #37 ) ;
#188 = CARTESIAN_POINT ( 'NONE',  ( -2.500000000000000000, 0.000000000000000000, 2.000000000000000000 ) ) ;
#189 = ORIENTED_EDGE ( 'NONE', *, *, #92, .T. ) ;
#190 = CYLINDRICAL_SURFACE ( 'NONE', #4, 1.250000000000000000 ) ;
#191 = EDGE_CURVE ( 'NONE', #27, #227, #136, .T. ) ;
#192 = EDGE_CURVE ( 'NONE', #227, #27, #96, .T. ) ;
#193 = APPLICATION_PROTOCOL_DEFINITION ( 'international standard', 'config_control_design', 1994, #109 ) ;
#194 = EDGE_CURVE ( 'NONE', #110, #12, #210, .T. ) ;
#195 = COORDINATED_UNIVERSAL_TIME_OFFSET ( 1, 0, .AHEAD. ) ;
#196 = LOCAL_TIME ( 19, 58, 10.00000000000000000, #143 ) ;
#197 = DATE_AND_TIME ( #163, #120 ) ;
#198 = EDGE_LOOP ( 'NONE', ( #165, #242, #250, #217 ) ) ;
#199 = MECHANICAL_CONTEXT ( 'NONE', #76, 'mechanical' ) ;
#200 = CARTESIAN_POINT ( 'NONE',  ( 0.000000000000000000, 0.000000000000000000, 2.000000000000000000 ) ) ;
#201 = DIRECTION ( 'NONE',  ( -1.000000000000000000, 0.000000000000000000, 0.000000000000000000 ) ) ;
#202 = FACE_OUTER_BOUND ( 'NONE', #154, .T. ) ;
#203 = CARTESIAN_POINT ( 'NONE',  ( 0.000000000000000000, 0.000000000000000000, 202.0000000000000000 ) ) ;
#204 = PRODUCT_RELATED_PRODUCT_CATEGORY ( 'detail', '', ( #213 ) ) ;
#205 = DIRECTION ( 'NONE',  ( 1.000000000000000000, 0.000000000000000000, 0.000000000000000000 ) ) ;
#206 = CARTESIAN_POINT ( 'NONE',  ( 0.000000000000000000, 0.000000000000000000, 2.000000000000000000 ) ) ;
#207 = DIRECTION ( 'NONE',  ( 0.000000000000000000, 0.000000000000000000, 1.000000000000000000 ) ) ;
#208 = ADVANCED_BREP_SHAPE_REPRESENTATION ( '55a0', ( #158, #152 ), #17 ) ;
#209 = CIRCLE ( 'NONE', #69, 2.500000000000000000 ) ;
#210 = LINE ( 'NONE', #180, #47 ) ;
#211 = CC_DESIGN_PERSON_AND_ORGANIZATION_ASSIGNMENT ( #101, #239, ( #77 ) ) ;
#212 = EDGE_LOOP ( 'NONE', ( #98, #233 ) ) ;
#213 = PRODUCT ( '55a0', '55a0', '', ( #199 ) ) ;
#214 = UNCERTAINTY_MEASURE_WITH_UNIT (LENGTH_MEASURE( 1.000000000000000082E-05 ), #86, 'distance_accuracy_value', 'NONE');
#215 = ADVANCED_FACE ( 'NONE', ( #168 ), #153, .T. ) ;
#216 = APPROVAL_DATE_TIME ( #235, #234 ) ;
#217 = ORIENTED_EDGE ( 'NONE', *, *, #229, .F. ) ;
#218 = DATE_TIME_ROLE ( 'creation_date' ) ;
#219 = DATE_AND_TIME ( #59, #221 ) ;
#220 = CALENDAR_DATE ( 2022, 7, 7 ) ;
#221 = LOCAL_TIME ( 19, 58, 10.00000000000000000, #195 ) ;
#222 = EDGE_LOOP ( 'NONE', ( #102, #134, #74, #82 ) ) ;
#223 = DIRECTION ( 'NONE',  ( -0.000000000000000000, -0.000000000000000000, -1.000000000000000000 ) ) ;
#224 = PERSON_AND_ORGANIZATION ( #99, #176 ) ;
#225 = ORIENTED_EDGE ( 'NONE', *, *, #162, .T. ) ;
#226 = LINE ( 'NONE', #16, #142 ) ;
#227 = VERTEX_POINT ( 'NONE', #64 ) ;
#228 = FACE_OUTER_BOUND ( 'NONE', #222, .T. ) ;
#229 = EDGE_CURVE ( 'NONE', #27, #187, #116, .T. ) ;
#230 = ORIENTED_EDGE ( 'NONE', *, *, #58, .F. ) ;
#231 = DIRECTION ( 'NONE',  ( 1.000000000000000000, 0.000000000000000000, -0.000000000000000000 ) ) ;
#232 = APPROVAL_PERSON_ORGANIZATION ( #238, #21, #148 ) ;
#233 = ORIENTED_EDGE ( 'NONE', *, *, #192, .T. ) ;
#234 = APPROVAL ( #253, 'NEURÈENÝ' ) ;
#235 = DATE_AND_TIME ( #161, #137 ) ;
#236 = CIRCLE ( 'NONE', #23, 1.250000000000000000 ) ;
#237 = COORDINATED_UNIVERSAL_TIME_OFFSET ( 1, 0, .AHEAD. ) ;
#238 = PERSON_AND_ORGANIZATION ( #99, #176 ) ;
#239 = PERSON_AND_ORGANIZATION_ROLE ( 'design_supplier' ) ;
#240 = DESIGN_CONTEXT ( 'detailed design', #109, 'design' ) ;
#241 = VECTOR ( 'NONE', #174, 1000.000000000000000 ) ;
#242 = ORIENTED_EDGE ( 'NONE', *, *, #118, .T. ) ;
#243 = DIRECTION ( 'NONE',  ( 0.000000000000000000, 0.000000000000000000, 1.000000000000000000 ) ) ;
#244 = SECURITY_CLASSIFICATION_LEVEL ( 'unclassified' ) ;
#245 = DIRECTION ( 'NONE',  ( -0.000000000000000000, -0.000000000000000000, -1.000000000000000000 ) ) ;
#246 = DIRECTION ( 'NONE',  ( 0.000000000000000000, 0.000000000000000000, 1.000000000000000000 ) ) ;
#247 = DIRECTION ( 'NONE',  ( -1.000000000000000000, 0.000000000000000000, 0.000000000000000000 ) ) ;
#248 = ADVANCED_FACE ( 'NONE', ( #67 ), #190, .T. ) ;
#249 = DIRECTION ( 'NONE',  ( 0.000000000000000000, 0.000000000000000000, 1.000000000000000000 ) ) ;
#250 = ORIENTED_EDGE ( 'NONE', *, *, #58, .T. ) ;
#251 = FACE_OUTER_BOUND ( 'NONE', #7, .T. ) ;
#252 = AXIS2_PLACEMENT_3D ( 'NONE', #108, #54, #186 ) ;
#253 = APPROVAL_STATUS ( 'not_yet_approved' ) ;
#254 = AXIS2_PLACEMENT_3D ( 'NONE', #203, #72, #133 ) ;
#255 = CC_DESIGN_DATE_AND_TIME_ASSIGNMENT ( #197, #218, ( #177 ) ) ;
ENDSEC;
END-ISO-10303-21;
