ISO-10303-21;
HEADER;
FILE_DESCRIPTION (( 'STEP AP203' ),
    '1' );
FILE_NAME ('9600.STEP',
    '2023-02-13T12:27:06',
    ( '' ),
    ( '' ),
    'SwSTEP 2.0',
    'SolidWorks 2019',
    '' );
FILE_SCHEMA (( 'CONFIG_CONTROL_DESIGN' ));
ENDSEC;

DATA;
#1 = CC_DESIGN_APPROVAL ( #89, ( #153 ) ) ;
#2 = AXIS2_PLACEMENT_3D ( 'NONE', #46, #185, #40 ) ;
#3 = VERTEX_POINT ( 'NONE', #114 ) ;
#4 = DIRECTION ( 'NONE',  ( 0.000000000000000000, 0.000000000000000000, 1.000000000000000000 ) ) ;
#5 = VERTEX_POINT ( 'NONE', #35 ) ;
#6 = CALENDAR_DATE ( 2023, 13, 2 ) ;
#7 = ADVANCED_FACE ( 'NONE', ( #190 ), #84, .F. ) ;
#8 = APPROVAL_PERSON_ORGANIZATION ( #82, #89, #223 ) ;
#9 = UNCERTAINTY_MEASURE_WITH_UNIT (LENGTH_MEASURE( 1.000000000000000082E-05 ), #60, 'distance_accuracy_value', 'NONE');
#10 = CYLINDRICAL_SURFACE ( 'NONE', #39, 9.000000000000000000 ) ;
#11 = CIRCLE ( 'NONE', #99, 5.750000000000000000 ) ;
#12 = CARTESIAN_POINT ( 'NONE',  ( 0.000000000000000000, 0.000000000000000000, 7.000000000000000000 ) ) ;
#13 =( NAMED_UNIT ( * ) PLANE_ANGLE_UNIT ( ) SI_UNIT ( $, .RADIAN. ) );
#14 = DIRECTION ( 'NONE',  ( 0.000000000000000000, 0.000000000000000000, 1.000000000000000000 ) ) ;
#15 = PRODUCT_DEFINITION_FORMATION_WITH_SPECIFIED_SOURCE ( 'LIBOVOLNÝ', '', #58, .NOT_KNOWN. ) ;
#16 = DIRECTION ( 'NONE',  ( -0.000000000000000000, -0.000000000000000000, -1.000000000000000000 ) ) ;
#17 = DIRECTION ( 'NONE',  ( -0.000000000000000000, -0.000000000000000000, -1.000000000000000000 ) ) ;
#18 = EDGE_CURVE ( 'NONE', #5, #163, #112, .T. ) ;
#19 = ORIENTED_EDGE ( 'NONE', *, *, #178, .F. ) ;
#20 = EDGE_LOOP ( 'NONE', ( #234, #218, #130, #220 ) ) ;
#21 = EDGE_CURVE ( 'NONE', #5, #227, #77, .T. ) ;
#22 = APPROVAL_STATUS ( 'not_yet_approved' ) ;
#23 = AXIS2_PLACEMENT_3D ( 'NONE', #207, #161, #157 ) ;
#24 = PERSON_AND_ORGANIZATION ( #31, #88 ) ;
#25 = EDGE_LOOP ( 'NONE', ( #50, #48 ) ) ;
#26 = AXIS2_PLACEMENT_3D ( 'NONE', #176, #14, #228 ) ;
#27 = ORIENTED_EDGE ( 'NONE', *, *, #165, .F. ) ;
#28 = ORIENTED_EDGE ( 'NONE', *, *, #65, .T. ) ;
#29 = ADVANCED_FACE ( 'NONE', ( #158 ), #57, .T. ) ;
#30 = COORDINATED_UNIVERSAL_TIME_OFFSET ( 1, 0, .AHEAD. ) ;
#31 = PERSON ( 'NEURÈENÝ', 'NEURÈENÝ', 'NEURÈENÝ', ('NEURÈENÝ'), ('NEURÈENÝ'), ('NEURÈENÝ') ) ;
#32 = CYLINDRICAL_SURFACE ( 'NONE', #175, 9.000000000000000000 ) ;
#33 = VERTEX_POINT ( 'NONE', #37 ) ;
#34 = APPLICATION_CONTEXT ( 'configuration controlled 3d designs of mechanical parts and assemblies' ) ;
#35 = CARTESIAN_POINT ( 'NONE',  ( 9.000000000000000000, 1.102182119232617714E-15, 7.000000000000000000 ) ) ;
#36 = APPLICATION_PROTOCOL_DEFINITION ( 'international standard', 'config_control_design', 1994, #34 ) ;
#37 = CARTESIAN_POINT ( 'NONE',  ( -5.750000000000000000, 0.000000000000000000, 250.0000000000000000 ) ) ;
#38 = DIRECTION ( 'NONE',  ( 0.000000000000000000, 0.000000000000000000, 1.000000000000000000 ) ) ;
#39 = AXIS2_PLACEMENT_3D ( 'NONE', #148, #53, #222 ) ;
#40 = DIRECTION ( 'NONE',  ( -1.000000000000000000, 0.000000000000000000, 0.000000000000000000 ) ) ;
#41 = PERSON_AND_ORGANIZATION ( #31, #88 ) ;
#42 = MECHANICAL_CONTEXT ( 'NONE', #34, 'mechanical' ) ;
#43 = APPROVAL_DATE_TIME ( #255, #79 ) ;
#44 = SECURITY_CLASSIFICATION_LEVEL ( 'unclassified' ) ;
#45 = ADVANCED_FACE ( 'NONE', ( #155 ), #32, .T. ) ;
#46 = CARTESIAN_POINT ( 'NONE',  ( 0.000000000000000000, 0.000000000000000000, 250.0000000000000000 ) ) ;
#47 = ORIENTED_EDGE ( 'NONE', *, *, #178, .T. ) ;
#48 = ORIENTED_EDGE ( 'NONE', *, *, #21, .T. ) ;
#49 = CARTESIAN_POINT ( 'NONE',  ( 0.000000000000000000, 0.000000000000000000, 250.0000000000000000 ) ) ;
#50 = ORIENTED_EDGE ( 'NONE', *, *, #247, .T. ) ;
#51 = APPROVAL_DATE_TIME ( #219, #89 ) ;
#52 = DIRECTION ( 'NONE',  ( 1.000000000000000000, 0.000000000000000000, 0.000000000000000000 ) ) ;
#53 = DIRECTION ( 'NONE',  ( -0.000000000000000000, -0.000000000000000000, -1.000000000000000000 ) ) ;
#54 = EDGE_LOOP ( 'NONE', ( #107, #144, #186, #47 ) ) ;
#55 = ORIENTED_EDGE ( 'NONE', *, *, #182, .F. ) ;
#56 =( NAMED_UNIT ( * ) SI_UNIT ( $, .STERADIAN. ) SOLID_ANGLE_UNIT ( ) );
#57 = CYLINDRICAL_SURFACE ( 'NONE', #105, 5.750000000000000000 ) ;
#58 = PRODUCT ( '9600', '9600', '', ( #42 ) ) ;
#59 = LOCAL_TIME ( 13, 27, 6.000000000000000000, #233 ) ;
#60 =( LENGTH_UNIT ( ) NAMED_UNIT ( * ) SI_UNIT ( .MILLI., .METRE. ) );
#61 = DATE_AND_TIME ( #198, #183 ) ;
#62 = EDGE_LOOP ( 'NONE', ( #208, #248 ) ) ;
#63 = APPLICATION_CONTEXT ( 'configuration controlled 3d designs of mechanical parts and assemblies' ) ;
#64 = CYLINDRICAL_SURFACE ( 'NONE', #2, 5.750000000000000000 ) ;
#65 = EDGE_CURVE ( 'NONE', #121, #90, #110, .T. ) ;
#66 = DIRECTION ( 'NONE',  ( 1.000000000000000000, 0.000000000000000000, 0.000000000000000000 ) ) ;
#67 = AXIS2_PLACEMENT_3D ( 'NONE', #12, #171, #71 ) ;
#68 = LINE ( 'NONE', #246, #181 ) ;
#69 = APPROVAL_STATUS ( 'not_yet_approved' ) ;
#70 = CC_DESIGN_PERSON_AND_ORGANIZATION_ASSIGNMENT ( #128, #169, ( #153 ) ) ;
#71 = DIRECTION ( 'NONE',  ( 1.000000000000000000, 0.000000000000000000, -0.000000000000000000 ) ) ;
#72 = CC_DESIGN_SECURITY_CLASSIFICATION ( #153, ( #15 ) ) ;
#73 = DIRECTION ( 'NONE',  ( 0.000000000000000000, 0.000000000000000000, 1.000000000000000000 ) ) ;
#74 = DIRECTION ( 'NONE',  ( 0.000000000000000000, 0.000000000000000000, 1.000000000000000000 ) ) ;
#75 = DIRECTION ( 'NONE',  ( 1.000000000000000000, 0.000000000000000000, -0.000000000000000000 ) ) ;
#76 = EDGE_CURVE ( 'NONE', #137, #90, #118, .T. ) ;
#77 = CIRCLE ( 'NONE', #126, 9.000000000000000000 ) ;
#78 = PERSON_AND_ORGANIZATION_ROLE ( 'design_owner' ) ;
#79 = APPROVAL ( #22, 'NEURÈENÝ' ) ;
#80 = DIRECTION ( 'NONE',  ( 1.000000000000000000, 0.000000000000000000, 0.000000000000000000 ) ) ;
#81 = CALENDAR_DATE ( 2023, 13, 2 ) ;
#82 = PERSON_AND_ORGANIZATION ( #31, #88 ) ;
#83 = CARTESIAN_POINT ( 'NONE',  ( 5.750000000000000000, 7.041719095097280880E-16, 250.0000000000000000 ) ) ;
#84 = PLANE ( 'NONE',  #168 ) ;
#85 = ADVANCED_FACE ( 'NONE', ( #170 ), #10, .T. ) ;
#86 = CARTESIAN_POINT ( 'NONE',  ( -9.000000000000000000, 0.000000000000000000, 7.000000000000000000 ) ) ;
#87 = FACE_OUTER_BOUND ( 'NONE', #25, .T. ) ;
#88 = ORGANIZATION ( 'NEURÈENÝ', 'NEURÈENÝ', '' ) ;
#89 = APPROVAL ( #69, 'NEURÈENÝ' ) ;
#90 = VERTEX_POINT ( 'NONE', #111 ) ;
#91 = VECTOR ( 'NONE', #17, 1000.000000000000000 ) ;
#92 = CARTESIAN_POINT ( 'NONE',  ( 0.000000000000000000, 0.000000000000000000, 7.000000000000000000 ) ) ;
#93 = DIRECTION ( 'NONE',  ( -0.000000000000000000, -0.000000000000000000, -1.000000000000000000 ) ) ;
#94 = DIRECTION ( 'NONE',  ( 0.000000000000000000, 0.000000000000000000, 1.000000000000000000 ) ) ;
#95 = CC_DESIGN_DATE_AND_TIME_ASSIGNMENT ( #61, #145, ( #240 ) ) ;
#96 = COORDINATED_UNIVERSAL_TIME_OFFSET ( 1, 0, .AHEAD. ) ;
#97 = CALENDAR_DATE ( 2023, 13, 2 ) ;
#98 = CC_DESIGN_APPROVAL ( #151, ( #15 ) ) ;
#99 = AXIS2_PLACEMENT_3D ( 'NONE', #142, #214, #180 ) ;
#100 = PRODUCT_RELATED_PRODUCT_CATEGORY ( 'detail', '', ( #58 ) ) ;
#101 = PERSON_AND_ORGANIZATION ( #31, #88 ) ;
#102 = CIRCLE ( 'NONE', #123, 5.750000000000000000 ) ;
#103 = DIRECTION ( 'NONE',  ( 1.000000000000000000, 0.000000000000000000, 0.000000000000000000 ) ) ;
#104 = ORIENTED_EDGE ( 'NONE', *, *, #21, .F. ) ;
#105 = AXIS2_PLACEMENT_3D ( 'NONE', #191, #16, #189 ) ;
#106 = DIRECTION ( 'NONE',  ( 0.000000000000000000, 0.000000000000000000, 1.000000000000000000 ) ) ;
#107 = ORIENTED_EDGE ( 'NONE', *, *, #18, .F. ) ;
#108 = DATE_AND_TIME ( #81, #59 ) ;
#109 = CARTESIAN_POINT ( 'NONE',  ( 0.000000000000000000, 0.000000000000000000, 0.000000000000000000 ) ) ;
#110 = LINE ( 'NONE', #243, #91 ) ;
#111 = CARTESIAN_POINT ( 'NONE',  ( 5.750000000000000000, 7.041719095097280880E-16, 7.000000000000000000 ) ) ;
#112 = LINE ( 'NONE', #194, #221 ) ;
#113 = CC_DESIGN_PERSON_AND_ORGANIZATION_ASSIGNMENT ( #41, #124, ( #240 ) ) ;
#114 = CARTESIAN_POINT ( 'NONE',  ( -9.000000000000000000, 0.000000000000000000, 0.000000000000000000 ) ) ;
#115 = AXIS2_PLACEMENT_3D ( 'NONE', #138, #38, #237 ) ;
#116 = CIRCLE ( 'NONE', #216, 9.000000000000000000 ) ;
#117 = DIRECTION ( 'NONE',  ( -1.000000000000000000, 0.000000000000000000, 0.000000000000000000 ) ) ;
#118 = CIRCLE ( 'NONE', #26, 5.750000000000000000 ) ;
#119 = LINE ( 'NONE', #210, #184 ) ;
#120 = LOCAL_TIME ( 13, 27, 6.000000000000000000, #149 ) ;
#121 = VERTEX_POINT ( 'NONE', #83 ) ;
#122 = EDGE_CURVE ( 'NONE', #227, #3, #68, .T. ) ;
#123 = AXIS2_PLACEMENT_3D ( 'NONE', #136, #94, #159 ) ;
#124 = PERSON_AND_ORGANIZATION_ROLE ( 'creator' ) ;
#125 = EDGE_LOOP ( 'NONE', ( #27, #28, #204, #215 ) ) ;
#126 = AXIS2_PLACEMENT_3D ( 'NONE', #203, #74, #66 ) ;
#127 = ADVANCED_FACE ( 'NONE', ( #225, #87 ), #132, .T. ) ;
#128 = PERSON_AND_ORGANIZATION ( #31, #88 ) ;
#129 = CC_DESIGN_DATE_AND_TIME_ASSIGNMENT ( #238, #241, ( #153 ) ) ;
#130 = ORIENTED_EDGE ( 'NONE', *, *, #209, .T. ) ;
#131 = CIRCLE ( 'NONE', #231, 9.000000000000000000 ) ;
#132 = PLANE ( 'NONE',  #67 ) ;
#133 = CARTESIAN_POINT ( 'NONE',  ( 0.000000000000000000, 0.000000000000000000, 0.000000000000000000 ) ) ;
#134 = CC_DESIGN_PERSON_AND_ORGANIZATION_ASSIGNMENT ( #24, #78, ( #58 ) ) ;
#135 = DIRECTION ( 'NONE',  ( 1.000000000000000000, 0.000000000000000000, -0.000000000000000000 ) ) ;
#136 = CARTESIAN_POINT ( 'NONE',  ( 0.000000000000000000, 0.000000000000000000, 250.0000000000000000 ) ) ;
#137 = VERTEX_POINT ( 'NONE', #154 ) ;
#138 = CARTESIAN_POINT ( 'NONE',  ( 0.000000000000000000, 0.000000000000000000, 0.000000000000000000 ) ) ;
#139 = ADVANCED_BREP_SHAPE_REPRESENTATION ( '9600', ( #236, #115 ), #172 ) ;
#140 = CC_DESIGN_PERSON_AND_ORGANIZATION_ASSIGNMENT ( #244, #187, ( #15 ) ) ;
#141 = AXIS2_PLACEMENT_3D ( 'NONE', #49, #106, #103 ) ;
#142 = CARTESIAN_POINT ( 'NONE',  ( 0.000000000000000000, 0.000000000000000000, 7.000000000000000000 ) ) ;
#143 = EDGE_CURVE ( 'NONE', #90, #137, #11, .T. ) ;
#144 = ORIENTED_EDGE ( 'NONE', *, *, #247, .F. ) ;
#145 = DATE_TIME_ROLE ( 'creation_date' ) ;
#146 = ORIENTED_EDGE ( 'NONE', *, *, #182, .T. ) ;
#147 = APPROVAL_DATE_TIME ( #108, #151 ) ;
#148 = CARTESIAN_POINT ( 'NONE',  ( 0.000000000000000000, 0.000000000000000000, 7.000000000000000000 ) ) ;
#149 = COORDINATED_UNIVERSAL_TIME_OFFSET ( 1, 0, .AHEAD. ) ;
#150 = DIRECTION ( 'NONE',  ( -0.000000000000000000, -0.000000000000000000, -1.000000000000000000 ) ) ;
#151 = APPROVAL ( #252, 'NEURÈENÝ' ) ;
#152 = CARTESIAN_POINT ( 'NONE',  ( 9.000000000000000000, 1.102182119232617714E-15, 0.000000000000000000 ) ) ;
#153 = SECURITY_CLASSIFICATION ( '', '', #44 ) ;
#154 = CARTESIAN_POINT ( 'NONE',  ( -5.750000000000000000, 0.000000000000000000, 7.000000000000000000 ) ) ;
#155 = FACE_OUTER_BOUND ( 'NONE', #212, .T. ) ;
#156 = PRODUCT_DEFINITION_SHAPE ( 'NONE', 'NONE',  #240 ) ;
#157 = DIRECTION ( 'NONE',  ( 1.000000000000000000, 0.000000000000000000, 0.000000000000000000 ) ) ;
#158 = FACE_OUTER_BOUND ( 'NONE', #20, .T. ) ;
#159 = DIRECTION ( 'NONE',  ( 1.000000000000000000, 0.000000000000000000, 0.000000000000000000 ) ) ;
#160 = CIRCLE ( 'NONE', #23, 9.000000000000000000 ) ;
#161 = DIRECTION ( 'NONE',  ( 0.000000000000000000, 0.000000000000000000, 1.000000000000000000 ) ) ;
#162 = APPROVAL_ROLE ( '' ) ;
#163 = VERTEX_POINT ( 'NONE', #152 ) ;
#164 = COORDINATED_UNIVERSAL_TIME_OFFSET ( 1, 0, .AHEAD. ) ;
#165 = EDGE_CURVE ( 'NONE', #121, #33, #242, .T. ) ;
#166 = APPROVAL_PERSON_ORGANIZATION ( #235, #79, #217 ) ;
#167 = FACE_OUTER_BOUND ( 'NONE', #125, .T. ) ;
#168 = AXIS2_PLACEMENT_3D ( 'NONE', #193, #73, #135 ) ;
#169 = PERSON_AND_ORGANIZATION_ROLE ( 'classification_officer' ) ;
#170 = FACE_OUTER_BOUND ( 'NONE', #54, .T. ) ;
#171 = DIRECTION ( 'NONE',  ( 0.000000000000000000, 0.000000000000000000, 1.000000000000000000 ) ) ;
#172 =( GEOMETRIC_REPRESENTATION_CONTEXT ( 3 ) GLOBAL_UNCERTAINTY_ASSIGNED_CONTEXT ( ( #9 ) ) GLOBAL_UNIT_ASSIGNED_CONTEXT ( ( #60, #13, #56 ) ) REPRESENTATION_CONTEXT ( 'NONE', 'WORKASPACE' ) );
#173 = ORIENTED_EDGE ( 'NONE', *, *, #18, .T. ) ;
#174 = DIRECTION ( 'NONE',  ( -0.000000000000000000, -0.000000000000000000, -1.000000000000000000 ) ) ;
#175 = AXIS2_PLACEMENT_3D ( 'NONE', #92, #174, #117 ) ;
#176 = CARTESIAN_POINT ( 'NONE',  ( 0.000000000000000000, 0.000000000000000000, 7.000000000000000000 ) ) ;
#177 = PLANE ( 'NONE',  #197 ) ;
#178 = EDGE_CURVE ( 'NONE', #3, #163, #116, .T. ) ;
#179 = PERSON_AND_ORGANIZATION ( #31, #88 ) ;
#180 = DIRECTION ( 'NONE',  ( 1.000000000000000000, 0.000000000000000000, 0.000000000000000000 ) ) ;
#181 = VECTOR ( 'NONE', #150, 1000.000000000000000 ) ;
#182 = EDGE_CURVE ( 'NONE', #163, #3, #131, .T. ) ;
#183 = LOCAL_TIME ( 13, 27, 6.000000000000000000, #96 ) ;
#184 = VECTOR ( 'NONE', #93, 1000.000000000000000 ) ;
#185 = DIRECTION ( 'NONE',  ( -0.000000000000000000, -0.000000000000000000, -1.000000000000000000 ) ) ;
#186 = ORIENTED_EDGE ( 'NONE', *, *, #122, .T. ) ;
#187 = PERSON_AND_ORGANIZATION_ROLE ( 'design_supplier' ) ;
#188 = CALENDAR_DATE ( 2023, 13, 2 ) ;
#189 = DIRECTION ( 'NONE',  ( -1.000000000000000000, 0.000000000000000000, 0.000000000000000000 ) ) ;
#190 = FACE_OUTER_BOUND ( 'NONE', #254, .T. ) ;
#191 = CARTESIAN_POINT ( 'NONE',  ( 0.000000000000000000, 0.000000000000000000, 250.0000000000000000 ) ) ;
#192 = ADVANCED_FACE ( 'NONE', ( #167 ), #64, .T. ) ;
#193 = CARTESIAN_POINT ( 'NONE',  ( 0.000000000000000000, 0.000000000000000000, 0.000000000000000000 ) ) ;
#194 = CARTESIAN_POINT ( 'NONE',  ( 9.000000000000000000, 1.102182119232617714E-15, 7.000000000000000000 ) ) ;
#195 = ORIENTED_EDGE ( 'NONE', *, *, #122, .F. ) ;
#196 = APPLICATION_PROTOCOL_DEFINITION ( 'international standard', 'config_control_design', 1994, #63 ) ;
#197 = AXIS2_PLACEMENT_3D ( 'NONE', #229, #251, #75 ) ;
#198 = CALENDAR_DATE ( 2023, 13, 2 ) ;
#199 = APPROVAL_PERSON_ORGANIZATION ( #179, #151, #162 ) ;
#200 = PERSON_AND_ORGANIZATION_ROLE ( 'creator' ) ;
#201 = DIRECTION ( 'NONE',  ( -0.000000000000000000, -0.000000000000000000, -1.000000000000000000 ) ) ;
#202 = SHAPE_DEFINITION_REPRESENTATION ( #156, #139 ) ;
#203 = CARTESIAN_POINT ( 'NONE',  ( 0.000000000000000000, 0.000000000000000000, 7.000000000000000000 ) ) ;
#204 = ORIENTED_EDGE ( 'NONE', *, *, #143, .T. ) ;
#205 = EDGE_CURVE ( 'NONE', #33, #121, #102, .T. ) ;
#206 = CLOSED_SHELL ( 'NONE', ( #192, #45, #85, #127, #7, #29, #253 ) ) ;
#207 = CARTESIAN_POINT ( 'NONE',  ( 0.000000000000000000, 0.000000000000000000, 7.000000000000000000 ) ) ;
#208 = ORIENTED_EDGE ( 'NONE', *, *, #76, .F. ) ;
#209 = EDGE_CURVE ( 'NONE', #33, #137, #119, .T. ) ;
#210 = CARTESIAN_POINT ( 'NONE',  ( -5.750000000000000000, 0.000000000000000000, 250.0000000000000000 ) ) ;
#211 = LOCAL_TIME ( 13, 27, 6.000000000000000000, #164 ) ;
#212 = EDGE_LOOP ( 'NONE', ( #104, #173, #146, #195 ) ) ;
#213 = EDGE_LOOP ( 'NONE', ( #250, #232 ) ) ;
#214 = DIRECTION ( 'NONE',  ( 0.000000000000000000, 0.000000000000000000, 1.000000000000000000 ) ) ;
#215 = ORIENTED_EDGE ( 'NONE', *, *, #209, .F. ) ;
#216 = AXIS2_PLACEMENT_3D ( 'NONE', #109, #239, #52 ) ;
#217 = APPROVAL_ROLE ( '' ) ;
#218 = ORIENTED_EDGE ( 'NONE', *, *, #205, .F. ) ;
#219 = DATE_AND_TIME ( #188, #230 ) ;
#220 = ORIENTED_EDGE ( 'NONE', *, *, #76, .T. ) ;
#221 = VECTOR ( 'NONE', #201, 1000.000000000000000 ) ;
#222 = DIRECTION ( 'NONE',  ( -1.000000000000000000, 0.000000000000000000, 0.000000000000000000 ) ) ;
#223 = APPROVAL_ROLE ( '' ) ;
#224 = CC_DESIGN_PERSON_AND_ORGANIZATION_ASSIGNMENT ( #101, #200, ( #15 ) ) ;
#225 = FACE_BOUND ( 'NONE', #62, .T. ) ;
#226 = CC_DESIGN_APPROVAL ( #79, ( #240 ) ) ;
#227 = VERTEX_POINT ( 'NONE', #86 ) ;
#228 = DIRECTION ( 'NONE',  ( 1.000000000000000000, 0.000000000000000000, 0.000000000000000000 ) ) ;
#229 = CARTESIAN_POINT ( 'NONE',  ( 0.000000000000000000, 0.000000000000000000, 250.0000000000000000 ) ) ;
#230 = LOCAL_TIME ( 13, 27, 6.000000000000000000, #30 ) ;
#231 = AXIS2_PLACEMENT_3D ( 'NONE', #133, #4, #80 ) ;
#232 = ORIENTED_EDGE ( 'NONE', *, *, #165, .T. ) ;
#233 = COORDINATED_UNIVERSAL_TIME_OFFSET ( 1, 0, .AHEAD. ) ;
#234 = ORIENTED_EDGE ( 'NONE', *, *, #65, .F. ) ;
#235 = PERSON_AND_ORGANIZATION ( #31, #88 ) ;
#236 = MANIFOLD_SOLID_BREP ( 'Pøidat vysunutím3', #206 ) ;
#237 = DIRECTION ( 'NONE',  ( 1.000000000000000000, 0.000000000000000000, 0.000000000000000000 ) ) ;
#238 = DATE_AND_TIME ( #6, #120 ) ;
#239 = DIRECTION ( 'NONE',  ( 0.000000000000000000, 0.000000000000000000, 1.000000000000000000 ) ) ;
#240 = PRODUCT_DEFINITION ( 'NEZNÁMÝ', '', #15, #245 ) ;
#241 = DATE_TIME_ROLE ( 'classification_date' ) ;
#242 = CIRCLE ( 'NONE', #141, 5.750000000000000000 ) ;
#243 = CARTESIAN_POINT ( 'NONE',  ( 5.750000000000000000, 7.041719095097280880E-16, 250.0000000000000000 ) ) ;
#244 = PERSON_AND_ORGANIZATION ( #31, #88 ) ;
#245 = DESIGN_CONTEXT ( 'detailed design', #63, 'design' ) ;
#246 = CARTESIAN_POINT ( 'NONE',  ( -9.000000000000000000, 0.000000000000000000, 7.000000000000000000 ) ) ;
#247 = EDGE_CURVE ( 'NONE', #227, #5, #160, .T. ) ;
#248 = ORIENTED_EDGE ( 'NONE', *, *, #143, .F. ) ;
#249 = FACE_OUTER_BOUND ( 'NONE', #213, .T. ) ;
#250 = ORIENTED_EDGE ( 'NONE', *, *, #205, .T. ) ;
#251 = DIRECTION ( 'NONE',  ( 0.000000000000000000, 0.000000000000000000, 1.000000000000000000 ) ) ;
#252 = APPROVAL_STATUS ( 'not_yet_approved' ) ;
#253 = ADVANCED_FACE ( 'NONE', ( #249 ), #177, .T. ) ;
#254 = EDGE_LOOP ( 'NONE', ( #19, #55 ) ) ;
#255 = DATE_AND_TIME ( #97, #211 ) ;
ENDSEC;
END-ISO-10303-21;
