ISO-10303-21;
HEADER;
FILE_DESCRIPTION (( 'STEP AP203' ),
    '1' );
FILE_NAME ('5d54.STEP',
    '2022-07-07T17:12:42',
    ( '' ),
    ( '' ),
    'SwSTEP 2.0',
    'SolidWorks 2019',
    '' );
FILE_SCHEMA (( 'CONFIG_CONTROL_DESIGN' ));
ENDSEC;

DATA;
#1 = CC_DESIGN_PERSON_AND_ORGANIZATION_ASSIGNMENT ( #60, #40, ( #134 ) ) ;
#2 = COORDINATED_UNIVERSAL_TIME_OFFSET ( 1, 0, .AHEAD. ) ;
#3 = ADVANCED_FACE ( 'NONE', ( #76 ), #252, .T. ) ;
#4 = CARTESIAN_POINT ( 'NONE',  ( 0.000000000000000000, 0.000000000000000000, 7.000000000000000000 ) ) ;
#5 = COORDINATED_UNIVERSAL_TIME_OFFSET ( 1, 0, .AHEAD. ) ;
#6 = DIRECTION ( 'NONE',  ( 1.000000000000000000, 0.000000000000000000, 0.000000000000000000 ) ) ;
#7 = PRODUCT_RELATED_PRODUCT_CATEGORY ( 'detail', '', ( #121 ) ) ;
#8 = DIRECTION ( 'NONE',  ( 1.000000000000000000, 0.000000000000000000, 0.000000000000000000 ) ) ;
#9 = EDGE_CURVE ( 'NONE', #87, #133, #231, .T. ) ;
#10 = APPROVAL_PERSON_ORGANIZATION ( #196, #36, #37 ) ;
#11 = APPLICATION_PROTOCOL_DEFINITION ( 'international standard', 'config_control_design', 1994, #255 ) ;
#12 = LOCAL_TIME ( 19, 12, 42.00000000000000000, #39 ) ;
#13 = CARTESIAN_POINT ( 'NONE',  ( -11.00000000000000000, 0.000000000000000000, 7.000000000000000000 ) ) ;
#14 = ORIENTED_EDGE ( 'NONE', *, *, #156, .T. ) ;
#15 = EDGE_LOOP ( 'NONE', ( #176, #207 ) ) ;
#16 = AXIS2_PLACEMENT_3D ( 'NONE', #139, #170, #240 ) ;
#17 = CC_DESIGN_PERSON_AND_ORGANIZATION_ASSIGNMENT ( #218, #101, ( #121 ) ) ;
#18 = APPROVAL_DATE_TIME ( #215, #77 ) ;
#19 = APPROVAL_DATE_TIME ( #198, #36 ) ;
#20 = APPROVAL_PERSON_ORGANIZATION ( #81, #77, #100 ) ;
#21 = ADVANCED_FACE ( 'NONE', ( #109 ), #84, .T. ) ;
#22 = DIRECTION ( 'NONE',  ( 1.000000000000000000, 0.000000000000000000, 0.000000000000000000 ) ) ;
#23 = CARTESIAN_POINT ( 'NONE',  ( -11.00000000000000000, 0.000000000000000000, 7.000000000000000000 ) ) ;
#24 = CIRCLE ( 'NONE', #247, 7.250000000000000000 ) ;
#25 = CARTESIAN_POINT ( 'NONE',  ( 11.00000000000000000, 1.347111479062088405E-15, 7.000000000000000000 ) ) ;
#26 = PLANE ( 'NONE',  #233 ) ;
#27 = CC_DESIGN_PERSON_AND_ORGANIZATION_ASSIGNMENT ( #136, #138, ( #134 ) ) ;
#28 = ORIENTED_EDGE ( 'NONE', *, *, #53, .F. ) ;
#29 = DIRECTION ( 'NONE',  ( 1.000000000000000000, 0.000000000000000000, 0.000000000000000000 ) ) ;
#30 = ORIENTED_EDGE ( 'NONE', *, *, #112, .F. ) ;
#31 = APPLICATION_PROTOCOL_DEFINITION ( 'international standard', 'config_control_design', 1994, #127 ) ;
#32 = CARTESIAN_POINT ( 'NONE',  ( 0.000000000000000000, 0.000000000000000000, 7.000000000000000000 ) ) ;
#33 = AXIS2_PLACEMENT_3D ( 'NONE', #120, #200, #181 ) ;
#34 = DIRECTION ( 'NONE',  ( -0.000000000000000000, -0.000000000000000000, -1.000000000000000000 ) ) ;
#35 = ADVANCED_FACE ( 'NONE', ( #44 ), #26, .F. ) ;
#36 = APPROVAL ( #113, 'NEURÈENÝ' ) ;
#37 = APPROVAL_ROLE ( '' ) ;
#38 = AXIS2_PLACEMENT_3D ( 'NONE', #32, #171, #251 ) ;
#39 = COORDINATED_UNIVERSAL_TIME_OFFSET ( 1, 0, .AHEAD. ) ;
#40 = PERSON_AND_ORGANIZATION_ROLE ( 'creator' ) ;
#41 = DIRECTION ( 'NONE',  ( -0.000000000000000000, -0.000000000000000000, -1.000000000000000000 ) ) ;
#42 = AXIS2_PLACEMENT_3D ( 'NONE', #219, #41, #203 ) ;
#43 = APPROVAL_ROLE ( '' ) ;
#44 = FACE_OUTER_BOUND ( 'NONE', #147, .T. ) ;
#45 = ORIENTED_EDGE ( 'NONE', *, *, #82, .F. ) ;
#46 = COORDINATED_UNIVERSAL_TIME_OFFSET ( 1, 0, .AHEAD. ) ;
#47 = DIRECTION ( 'NONE',  ( -1.000000000000000000, 0.000000000000000000, 0.000000000000000000 ) ) ;
#48 = ORIENTED_EDGE ( 'NONE', *, *, #239, .F. ) ;
#49 = CARTESIAN_POINT ( 'NONE',  ( 11.00000000000000000, 1.347111479062088405E-15, 7.000000000000000000 ) ) ;
#50 = DIRECTION ( 'NONE',  ( 1.000000000000000000, 0.000000000000000000, -0.000000000000000000 ) ) ;
#51 = ORIENTED_EDGE ( 'NONE', *, *, #82, .T. ) ;
#52 = DIRECTION ( 'NONE',  ( -0.000000000000000000, -0.000000000000000000, -1.000000000000000000 ) ) ;
#53 = EDGE_CURVE ( 'NONE', #93, #224, #253, .T. ) ;
#54 = EDGE_LOOP ( 'NONE', ( #245, #28, #227, #152 ) ) ;
#55 = EDGE_CURVE ( 'NONE', #220, #90, #80, .T. ) ;
#56 = LOCAL_TIME ( 19, 12, 42.00000000000000000, #2 ) ;
#57 = EDGE_CURVE ( 'NONE', #93, #220, #186, .T. ) ;
#58 = PERSON ( 'NEURÈENÝ', 'NEURÈENÝ', 'NEURÈENÝ', ('NEURÈENÝ'), ('NEURÈENÝ'), ('NEURÈENÝ') ) ;
#59 = VECTOR ( 'NONE', #67, 1000.000000000000000 ) ;
#60 = PERSON_AND_ORGANIZATION ( #58, #193 ) ;
#61 = CIRCLE ( 'NONE', #16, 7.250000000000000000 ) ;
#62 = CALENDAR_DATE ( 2022, 7, 7 ) ;
#63 = CARTESIAN_POINT ( 'NONE',  ( 7.250000000000000000, 8.878689293818310074E-16, 132.0000000000000000 ) ) ;
#64 = ADVANCED_FACE ( 'NONE', ( #165 ), #65, .T. ) ;
#65 = CYLINDRICAL_SURFACE ( 'NONE', #157, 11.00000000000000000 ) ;
#66 = VECTOR ( 'NONE', #160, 1000.000000000000000 ) ;
#67 = DIRECTION ( 'NONE',  ( -0.000000000000000000, -0.000000000000000000, -1.000000000000000000 ) ) ;
#68 = DIRECTION ( 'NONE',  ( 0.000000000000000000, 0.000000000000000000, 1.000000000000000000 ) ) ;
#69 = ORIENTED_EDGE ( 'NONE', *, *, #195, .T. ) ;
#70 = CARTESIAN_POINT ( 'NONE',  ( 0.000000000000000000, 0.000000000000000000, 132.0000000000000000 ) ) ;
#71 = MANIFOLD_SOLID_BREP ( 'Pøidat vysunutím3', #173 ) ;
#72 = ORIENTED_EDGE ( 'NONE', *, *, #155, .T. ) ;
#73 = CYLINDRICAL_SURFACE ( 'NONE', #33, 7.250000000000000000 ) ;
#74 = DESIGN_CONTEXT ( 'detailed design', #255, 'design' ) ;
#75 = EDGE_LOOP ( 'NONE', ( #212, #51, #184, #166 ) ) ;
#76 = FACE_OUTER_BOUND ( 'NONE', #75, .T. ) ;
#77 = APPROVAL ( #237, 'NEURÈENÝ' ) ;
#78 = UNCERTAINTY_MEASURE_WITH_UNIT (LENGTH_MEASURE( 1.000000000000000082E-05 ), #208, 'distance_accuracy_value', 'NONE');
#79 = VECTOR ( 'NONE', #52, 1000.000000000000000 ) ;
#80 = CIRCLE ( 'NONE', #217, 11.00000000000000000 ) ;
#81 = PERSON_AND_ORGANIZATION ( #58, #193 ) ;
#82 = EDGE_CURVE ( 'NONE', #187, #204, #126, .T. ) ;
#83 = PERSON_AND_ORGANIZATION ( #58, #193 ) ;
#84 = CYLINDRICAL_SURFACE ( 'NONE', #42, 11.00000000000000000 ) ;
#85 = CARTESIAN_POINT ( 'NONE',  ( 0.000000000000000000, 0.000000000000000000, 0.000000000000000000 ) ) ;
#86 = CARTESIAN_POINT ( 'NONE',  ( -7.250000000000000000, 0.000000000000000000, 7.000000000000000000 ) ) ;
#87 = VERTEX_POINT ( 'NONE', #189 ) ;
#88 = DATE_TIME_ROLE ( 'creation_date' ) ;
#89 = PLANE ( 'NONE',  #163 ) ;
#90 = VERTEX_POINT ( 'NONE', #241 ) ;
#91 = PERSON_AND_ORGANIZATION ( #58, #193 ) ;
#92 = DIRECTION ( 'NONE',  ( 1.000000000000000000, 0.000000000000000000, 0.000000000000000000 ) ) ;
#93 = VERTEX_POINT ( 'NONE', #13 ) ;
#94 = ORIENTED_EDGE ( 'NONE', *, *, #179, .T. ) ;
#95 = AXIS2_PLACEMENT_3D ( 'NONE', #201, #129, #167 ) ;
#96 = VECTOR ( 'NONE', #151, 1000.000000000000000 ) ;
#97 = AXIS2_PLACEMENT_3D ( 'NONE', #106, #123, #8 ) ;
#98 = PRODUCT_DEFINITION ( 'NEZNÁMÝ', '', #134, #74 ) ;
#99 =( GEOMETRIC_REPRESENTATION_CONTEXT ( 3 ) GLOBAL_UNCERTAINTY_ASSIGNED_CONTEXT ( ( #78 ) ) GLOBAL_UNIT_ASSIGNED_CONTEXT ( ( #208, #132, #205 ) ) REPRESENTATION_CONTEXT ( 'NONE', 'WORKASPACE' ) );
#100 = APPROVAL_ROLE ( '' ) ;
#101 = PERSON_AND_ORGANIZATION_ROLE ( 'design_owner' ) ;
#102 = DIRECTION ( 'NONE',  ( 1.000000000000000000, 0.000000000000000000, -0.000000000000000000 ) ) ;
#103 = DIRECTION ( 'NONE',  ( 1.000000000000000000, 0.000000000000000000, 0.000000000000000000 ) ) ;
#104 = ORIENTED_EDGE ( 'NONE', *, *, #230, .T. ) ;
#105 = DATE_AND_TIME ( #125, #213 ) ;
#106 = CARTESIAN_POINT ( 'NONE',  ( 0.000000000000000000, 0.000000000000000000, 7.000000000000000000 ) ) ;
#107 = ORIENTED_EDGE ( 'NONE', *, *, #230, .F. ) ;
#108 = CARTESIAN_POINT ( 'NONE',  ( 7.250000000000000000, 8.878689293818310074E-16, 132.0000000000000000 ) ) ;
#109 = FACE_OUTER_BOUND ( 'NONE', #169, .T. ) ;
#110 = CARTESIAN_POINT ( 'NONE',  ( -7.250000000000000000, 0.000000000000000000, 132.0000000000000000 ) ) ;
#111 = ORIENTED_EDGE ( 'NONE', *, *, #55, .F. ) ;
#112 = EDGE_CURVE ( 'NONE', #224, #93, #174, .T. ) ;
#113 = APPROVAL_STATUS ( 'not_yet_approved' ) ;
#114 = CC_DESIGN_DATE_AND_TIME_ASSIGNMENT ( #105, #88, ( #98 ) ) ;
#115 = PERSON_AND_ORGANIZATION ( #58, #193 ) ;
#116 = CALENDAR_DATE ( 2022, 7, 7 ) ;
#117 = SECURITY_CLASSIFICATION ( '', '', #158 ) ;
#118 = PERSON_AND_ORGANIZATION_ROLE ( 'classification_officer' ) ;
#119 = DATE_TIME_ROLE ( 'classification_date' ) ;
#120 = CARTESIAN_POINT ( 'NONE',  ( 0.000000000000000000, 0.000000000000000000, 132.0000000000000000 ) ) ;
#121 = PRODUCT ( '5d54', '5d54', '', ( #142 ) ) ;
#122 = CALENDAR_DATE ( 2022, 7, 7 ) ;
#123 = DIRECTION ( 'NONE',  ( 0.000000000000000000, 0.000000000000000000, 1.000000000000000000 ) ) ;
#124 = AXIS2_PLACEMENT_3D ( 'NONE', #85, #243, #246 ) ;
#125 = CALENDAR_DATE ( 2022, 7, 7 ) ;
#126 = LINE ( 'NONE', #63, #96 ) ;
#127 = APPLICATION_CONTEXT ( 'configuration controlled 3d designs of mechanical parts and assemblies' ) ;
#128 = EDGE_LOOP ( 'NONE', ( #242, #48 ) ) ;
#129 = DIRECTION ( 'NONE',  ( 0.000000000000000000, 0.000000000000000000, 1.000000000000000000 ) ) ;
#130 = CARTESIAN_POINT ( 'NONE',  ( 0.000000000000000000, 0.000000000000000000, 7.000000000000000000 ) ) ;
#131 = DIRECTION ( 'NONE',  ( -1.000000000000000000, 0.000000000000000000, 0.000000000000000000 ) ) ;
#132 =( NAMED_UNIT ( * ) PLANE_ANGLE_UNIT ( ) SI_UNIT ( $, .RADIAN. ) );
#133 = VERTEX_POINT ( 'NONE', #86 ) ;
#134 = PRODUCT_DEFINITION_FORMATION_WITH_SPECIFIED_SOURCE ( 'LIBOVOLNÝ', '', #121, .NOT_KNOWN. ) ;
#135 = PRODUCT_DEFINITION_SHAPE ( 'NONE', 'NONE',  #98 ) ;
#136 = PERSON_AND_ORGANIZATION ( #58, #193 ) ;
#137 = ADVANCED_FACE ( 'NONE', ( #244 ), #89, .T. ) ;
#138 = PERSON_AND_ORGANIZATION_ROLE ( 'design_supplier' ) ;
#139 = CARTESIAN_POINT ( 'NONE',  ( 0.000000000000000000, 0.000000000000000000, 7.000000000000000000 ) ) ;
#140 = CARTESIAN_POINT ( 'NONE',  ( 0.000000000000000000, 0.000000000000000000, 0.000000000000000000 ) ) ;
#141 = AXIS2_PLACEMENT_3D ( 'NONE', #191, #34, #131 ) ;
#142 = MECHANICAL_CONTEXT ( 'NONE', #127, 'mechanical' ) ;
#143 = DIRECTION ( 'NONE',  ( 0.000000000000000000, 0.000000000000000000, 1.000000000000000000 ) ) ;
#144 = CC_DESIGN_DATE_AND_TIME_ASSIGNMENT ( #234, #119, ( #117 ) ) ;
#145 = CARTESIAN_POINT ( 'NONE',  ( 0.000000000000000000, 0.000000000000000000, 0.000000000000000000 ) ) ;
#146 = AXIS2_PLACEMENT_3D ( 'NONE', #159, #188, #22 ) ;
#147 = EDGE_LOOP ( 'NONE', ( #111, #172 ) ) ;
#148 = FACE_BOUND ( 'NONE', #128, .T. ) ;
#149 = EDGE_LOOP ( 'NONE', ( #45, #107, #249, #72 ) ) ;
#150 = CARTESIAN_POINT ( 'NONE',  ( 7.250000000000000000, 8.878689293818310074E-16, 7.000000000000000000 ) ) ;
#151 = DIRECTION ( 'NONE',  ( -0.000000000000000000, -0.000000000000000000, -1.000000000000000000 ) ) ;
#152 = ORIENTED_EDGE ( 'NONE', *, *, #55, .T. ) ;
#153 = ORIENTED_EDGE ( 'NONE', *, *, #57, .F. ) ;
#154 = LOCAL_TIME ( 19, 12, 42.00000000000000000, #254 ) ;
#155 = EDGE_CURVE ( 'NONE', #133, #204, #236, .T. ) ;
#156 = EDGE_CURVE ( 'NONE', #187, #87, #24, .T. ) ;
#157 = AXIS2_PLACEMENT_3D ( 'NONE', #248, #238, #47 ) ;
#158 = SECURITY_CLASSIFICATION_LEVEL ( 'unclassified' ) ;
#159 = CARTESIAN_POINT ( 'NONE',  ( 0.000000000000000000, 0.000000000000000000, 0.000000000000000000 ) ) ;
#160 = DIRECTION ( 'NONE',  ( -0.000000000000000000, -0.000000000000000000, -1.000000000000000000 ) ) ;
#161 = CC_DESIGN_PERSON_AND_ORGANIZATION_ASSIGNMENT ( #91, #221, ( #98 ) ) ;
#162 = ADVANCED_FACE ( 'NONE', ( #148, #216 ), #209, .T. ) ;
#163 = AXIS2_PLACEMENT_3D ( 'NONE', #70, #223, #102 ) ;
#164 = APPROVAL_DATE_TIME ( #185, #182 ) ;
#165 = FACE_OUTER_BOUND ( 'NONE', #54, .T. ) ;
#166 = ORIENTED_EDGE ( 'NONE', *, *, #9, .F. ) ;
#167 = DIRECTION ( 'NONE',  ( 1.000000000000000000, 0.000000000000000000, 0.000000000000000000 ) ) ;
#168 = CARTESIAN_POINT ( 'NONE',  ( 0.000000000000000000, 0.000000000000000000, 132.0000000000000000 ) ) ;
#169 = EDGE_LOOP ( 'NONE', ( #30, #69, #94, #153 ) ) ;
#170 = DIRECTION ( 'NONE',  ( 0.000000000000000000, 0.000000000000000000, 1.000000000000000000 ) ) ;
#171 = DIRECTION ( 'NONE',  ( 0.000000000000000000, 0.000000000000000000, 1.000000000000000000 ) ) ;
#172 = ORIENTED_EDGE ( 'NONE', *, *, #179, .F. ) ;
#173 = CLOSED_SHELL ( 'NONE', ( #3, #21, #64, #162, #35, #175, #137 ) ) ;
#174 = CIRCLE ( 'NONE', #97, 11.00000000000000000 ) ;
#175 = ADVANCED_FACE ( 'NONE', ( #229 ), #73, .T. ) ;
#176 = ORIENTED_EDGE ( 'NONE', *, *, #53, .T. ) ;
#177 = CIRCLE ( 'NONE', #95, 7.250000000000000000 ) ;
#178 = LOCAL_TIME ( 19, 12, 42.00000000000000000, #5 ) ;
#179 = EDGE_CURVE ( 'NONE', #90, #220, #202, .T. ) ;
#180 = SHAPE_DEFINITION_REPRESENTATION ( #135, #210 ) ;
#181 = DIRECTION ( 'NONE',  ( -1.000000000000000000, 0.000000000000000000, 0.000000000000000000 ) ) ;
#182 = APPROVAL ( #225, 'NEURÈENÝ' ) ;
#183 = DIRECTION ( 'NONE',  ( 0.000000000000000000, 0.000000000000000000, 1.000000000000000000 ) ) ;
#184 = ORIENTED_EDGE ( 'NONE', *, *, #239, .T. ) ;
#185 = DATE_AND_TIME ( #122, #178 ) ;
#186 = LINE ( 'NONE', #23, #66 ) ;
#187 = VERTEX_POINT ( 'NONE', #108 ) ;
#188 = DIRECTION ( 'NONE',  ( 0.000000000000000000, 0.000000000000000000, 1.000000000000000000 ) ) ;
#189 = CARTESIAN_POINT ( 'NONE',  ( -7.250000000000000000, 0.000000000000000000, 132.0000000000000000 ) ) ;
#190 = CC_DESIGN_APPROVAL ( #36, ( #117 ) ) ;
#191 = CARTESIAN_POINT ( 'NONE',  ( 0.000000000000000000, 0.000000000000000000, 132.0000000000000000 ) ) ;
#192 = EDGE_LOOP ( 'NONE', ( #104, #14 ) ) ;
#193 = ORGANIZATION ( 'NEURÈENÝ', 'NEURÈENÝ', '' ) ;
#194 = AXIS2_PLACEMENT_3D ( 'NONE', #4, #183, #6 ) ;
#195 = EDGE_CURVE ( 'NONE', #224, #90, #228, .T. ) ;
#196 = PERSON_AND_ORGANIZATION ( #58, #193 ) ;
#197 = CC_DESIGN_APPROVAL ( #77, ( #134 ) ) ;
#198 = DATE_AND_TIME ( #116, #154 ) ;
#199 = CALENDAR_DATE ( 2022, 7, 7 ) ;
#200 = DIRECTION ( 'NONE',  ( -0.000000000000000000, -0.000000000000000000, -1.000000000000000000 ) ) ;
#201 = CARTESIAN_POINT ( 'NONE',  ( 0.000000000000000000, 0.000000000000000000, 132.0000000000000000 ) ) ;
#202 = CIRCLE ( 'NONE', #124, 11.00000000000000000 ) ;
#203 = DIRECTION ( 'NONE',  ( -1.000000000000000000, 0.000000000000000000, 0.000000000000000000 ) ) ;
#204 = VERTEX_POINT ( 'NONE', #150 ) ;
#205 =( NAMED_UNIT ( * ) SI_UNIT ( $, .STERADIAN. ) SOLID_ANGLE_UNIT ( ) );
#206 = DIRECTION ( 'NONE',  ( 0.000000000000000000, 0.000000000000000000, 1.000000000000000000 ) ) ;
#207 = ORIENTED_EDGE ( 'NONE', *, *, #112, .T. ) ;
#208 =( LENGTH_UNIT ( ) NAMED_UNIT ( * ) SI_UNIT ( .MILLI., .METRE. ) );
#209 = PLANE ( 'NONE',  #38 ) ;
#210 = ADVANCED_BREP_SHAPE_REPRESENTATION ( '5d54', ( #71, #146 ), #99 ) ;
#211 = AXIS2_PLACEMENT_3D ( 'NONE', #130, #206, #29 ) ;
#212 = ORIENTED_EDGE ( 'NONE', *, *, #156, .F. ) ;
#213 = LOCAL_TIME ( 19, 12, 42.00000000000000000, #46 ) ;
#214 = CC_DESIGN_SECURITY_CLASSIFICATION ( #117, ( #134 ) ) ;
#215 = DATE_AND_TIME ( #199, #56 ) ;
#216 = FACE_OUTER_BOUND ( 'NONE', #15, .T. ) ;
#217 = AXIS2_PLACEMENT_3D ( 'NONE', #140, #68, #103 ) ;
#218 = PERSON_AND_ORGANIZATION ( #58, #193 ) ;
#219 = CARTESIAN_POINT ( 'NONE',  ( 0.000000000000000000, 0.000000000000000000, 7.000000000000000000 ) ) ;
#220 = VERTEX_POINT ( 'NONE', #250 ) ;
#221 = PERSON_AND_ORGANIZATION_ROLE ( 'creator' ) ;
#222 = APPROVAL_PERSON_ORGANIZATION ( #83, #182, #43 ) ;
#223 = DIRECTION ( 'NONE',  ( 0.000000000000000000, 0.000000000000000000, 1.000000000000000000 ) ) ;
#224 = VERTEX_POINT ( 'NONE', #49 ) ;
#225 = APPROVAL_STATUS ( 'not_yet_approved' ) ;
#226 = DIRECTION ( 'NONE',  ( 0.000000000000000000, 0.000000000000000000, 1.000000000000000000 ) ) ;
#227 = ORIENTED_EDGE ( 'NONE', *, *, #57, .T. ) ;
#228 = LINE ( 'NONE', #25, #79 ) ;
#229 = FACE_OUTER_BOUND ( 'NONE', #149, .T. ) ;
#230 = EDGE_CURVE ( 'NONE', #87, #187, #177, .T. ) ;
#231 = LINE ( 'NONE', #110, #59 ) ;
#232 = CC_DESIGN_APPROVAL ( #182, ( #98 ) ) ;
#233 = AXIS2_PLACEMENT_3D ( 'NONE', #145, #143, #50 ) ;
#234 = DATE_AND_TIME ( #62, #12 ) ;
#235 = CC_DESIGN_PERSON_AND_ORGANIZATION_ASSIGNMENT ( #115, #118, ( #117 ) ) ;
#236 = CIRCLE ( 'NONE', #211, 7.250000000000000000 ) ;
#237 = APPROVAL_STATUS ( 'not_yet_approved' ) ;
#238 = DIRECTION ( 'NONE',  ( -0.000000000000000000, -0.000000000000000000, -1.000000000000000000 ) ) ;
#239 = EDGE_CURVE ( 'NONE', #204, #133, #61, .T. ) ;
#240 = DIRECTION ( 'NONE',  ( 1.000000000000000000, 0.000000000000000000, 0.000000000000000000 ) ) ;
#241 = CARTESIAN_POINT ( 'NONE',  ( 11.00000000000000000, 1.347111479062088405E-15, 0.000000000000000000 ) ) ;
#242 = ORIENTED_EDGE ( 'NONE', *, *, #155, .F. ) ;
#243 = DIRECTION ( 'NONE',  ( 0.000000000000000000, 0.000000000000000000, 1.000000000000000000 ) ) ;
#244 = FACE_OUTER_BOUND ( 'NONE', #192, .T. ) ;
#245 = ORIENTED_EDGE ( 'NONE', *, *, #195, .F. ) ;
#246 = DIRECTION ( 'NONE',  ( 1.000000000000000000, 0.000000000000000000, 0.000000000000000000 ) ) ;
#247 = AXIS2_PLACEMENT_3D ( 'NONE', #168, #226, #92 ) ;
#248 = CARTESIAN_POINT ( 'NONE',  ( 0.000000000000000000, 0.000000000000000000, 7.000000000000000000 ) ) ;
#249 = ORIENTED_EDGE ( 'NONE', *, *, #9, .T. ) ;
#250 = CARTESIAN_POINT ( 'NONE',  ( -11.00000000000000000, 0.000000000000000000, 0.000000000000000000 ) ) ;
#251 = DIRECTION ( 'NONE',  ( 1.000000000000000000, 0.000000000000000000, -0.000000000000000000 ) ) ;
#252 = CYLINDRICAL_SURFACE ( 'NONE', #141, 7.250000000000000000 ) ;
#253 = CIRCLE ( 'NONE', #194, 11.00000000000000000 ) ;
#254 = COORDINATED_UNIVERSAL_TIME_OFFSET ( 1, 0, .AHEAD. ) ;
#255 = APPLICATION_CONTEXT ( 'configuration controlled 3d designs of mechanical parts and assemblies' ) ;
ENDSEC;
END-ISO-10303-21;
