ISO-10303-21;
HEADER;
FILE_DESCRIPTION (( 'STEP AP203' ),
    '1' );
FILE_NAME ('f72e.STEP',
    '2022-07-07T17:04:13',
    ( '' ),
    ( '' ),
    'SwSTEP 2.0',
    'SolidWorks 2019',
    '' );
FILE_SCHEMA (( 'CONFIG_CONTROL_DESIGN' ));
ENDSEC;

DATA;
#1 = ORGANIZATION ( 'NEURÈENÝ', 'NEURÈENÝ', '' ) ;
#2 = ADVANCED_FACE ( 'NONE', ( #139, #228 ), #253, .T. ) ;
#3 = CARTESIAN_POINT ( 'NONE',  ( -10.00000000000000178, 0.000000000000000000, 8.000000000000000000 ) ) ;
#4 = CC_DESIGN_APPROVAL ( #7, ( #53 ) ) ;
#5 = CIRCLE ( 'NONE', #30, 10.00000000000000178 ) ;
#6 = EDGE_CURVE ( 'NONE', #177, #34, #5, .T. ) ;
#7 = APPROVAL ( #73, 'NEURÈENÝ' ) ;
#8 = CALENDAR_DATE ( 2022, 7, 7 ) ;
#9 = COORDINATED_UNIVERSAL_TIME_OFFSET ( 1, 0, .AHEAD. ) ;
#10 = CARTESIAN_POINT ( 'NONE',  ( 0.000000000000000000, 0.000000000000000000, 8.000000000000000000 ) ) ;
#11 = ORIENTED_EDGE ( 'NONE', *, *, #214, .F. ) ;
#12 = VECTOR ( 'NONE', #231, 1000.000000000000000 ) ;
#13 = MECHANICAL_CONTEXT ( 'NONE', #234, 'mechanical' ) ;
#14 = ORIENTED_EDGE ( 'NONE', *, *, #225, .T. ) ;
#15 = CARTESIAN_POINT ( 'NONE',  ( 0.000000000000000000, 0.000000000000000000, 0.000000000000000000 ) ) ;
#16 = COORDINATED_UNIVERSAL_TIME_OFFSET ( 1, 0, .AHEAD. ) ;
#17 = ORIENTED_EDGE ( 'NONE', *, *, #238, .T. ) ;
#18 = LINE ( 'NONE', #84, #47 ) ;
#19 = DIRECTION ( 'NONE',  ( -1.000000000000000000, 0.000000000000000000, 0.000000000000000000 ) ) ;
#20 = CIRCLE ( 'NONE', #52, 13.00000000000000178 ) ;
#21 = DIRECTION ( 'NONE',  ( 1.000000000000000000, 0.000000000000000000, 0.000000000000000000 ) ) ;
#22 = DESIGN_CONTEXT ( 'detailed design', #146, 'design' ) ;
#23 = CC_DESIGN_PERSON_AND_ORGANIZATION_ASSIGNMENT ( #95, #248, ( #241 ) ) ;
#24 = AXIS2_PLACEMENT_3D ( 'NONE', #68, #107, #40 ) ;
#25 = CARTESIAN_POINT ( 'NONE',  ( 0.000000000000000000, 0.000000000000000000, 133.0000000000000000 ) ) ;
#26 = CIRCLE ( 'NONE', #163, 13.00000000000000178 ) ;
#27 = ADVANCED_FACE ( 'NONE', ( #136 ), #56, .T. ) ;
#28 = AXIS2_PLACEMENT_3D ( 'NONE', #15, #237, #103 ) ;
#29 = EDGE_CURVE ( 'NONE', #77, #194, #211, .T. ) ;
#30 = AXIS2_PLACEMENT_3D ( 'NONE', #192, #121, #143 ) ;
#31 = APPROVAL_DATE_TIME ( #209, #7 ) ;
#32 = DIRECTION ( 'NONE',  ( 1.000000000000000000, 0.000000000000000000, 0.000000000000000000 ) ) ;
#33 = APPROVAL_STATUS ( 'not_yet_approved' ) ;
#34 = VERTEX_POINT ( 'NONE', #36 ) ;
#35 = CALENDAR_DATE ( 2022, 7, 7 ) ;
#36 = CARTESIAN_POINT ( 'NONE',  ( 10.00000000000000178, 1.224646799147353454E-15, 133.0000000000000000 ) ) ;
#37 = CARTESIAN_POINT ( 'NONE',  ( -13.00000000000000178, 0.000000000000000000, 0.000000000000000000 ) ) ;
#38 = APPROVAL_DATE_TIME ( #133, #164 ) ;
#39 = EDGE_LOOP ( 'NONE', ( #145, #158 ) ) ;
#40 = DIRECTION ( 'NONE',  ( -1.000000000000000000, 0.000000000000000000, 0.000000000000000000 ) ) ;
#41 = DIRECTION ( 'NONE',  ( 0.000000000000000000, 0.000000000000000000, 1.000000000000000000 ) ) ;
#42 = MANIFOLD_SOLID_BREP ( 'Pøidat vysunutím3', #186 ) ;
#43 = LINE ( 'NONE', #63, #12 ) ;
#44 = DIRECTION ( 'NONE',  ( 0.000000000000000000, 0.000000000000000000, 1.000000000000000000 ) ) ;
#45 = PRODUCT_RELATED_PRODUCT_CATEGORY ( 'detail', '', ( #104 ) ) ;
#46 = DIRECTION ( 'NONE',  ( 1.000000000000000000, 0.000000000000000000, -0.000000000000000000 ) ) ;
#47 = VECTOR ( 'NONE', #60, 1000.000000000000000 ) ;
#48 = DATE_AND_TIME ( #72, #173 ) ;
#49 = APPROVAL_ROLE ( '' ) ;
#50 = AXIS2_PLACEMENT_3D ( 'NONE', #10, #78, #32 ) ;
#51 = APPROVAL_ROLE ( '' ) ;
#52 = AXIS2_PLACEMENT_3D ( 'NONE', #184, #178, #250 ) ;
#53 = SECURITY_CLASSIFICATION ( '', '', #138 ) ;
#54 = DIRECTION ( 'NONE',  ( 1.000000000000000000, 0.000000000000000000, 0.000000000000000000 ) ) ;
#55 = CARTESIAN_POINT ( 'NONE',  ( 0.000000000000000000, 0.000000000000000000, 0.000000000000000000 ) ) ;
#56 = CYLINDRICAL_SURFACE ( 'NONE', #116, 13.00000000000000178 ) ;
#57 = PERSON_AND_ORGANIZATION ( #208, #1 ) ;
#58 = ORIENTED_EDGE ( 'NONE', *, *, #255, .F. ) ;
#59 = AXIS2_PLACEMENT_3D ( 'NONE', #118, #100, #21 ) ;
#60 = DIRECTION ( 'NONE',  ( -0.000000000000000000, -0.000000000000000000, -1.000000000000000000 ) ) ;
#61 = ORIENTED_EDGE ( 'NONE', *, *, #6, .T. ) ;
#62 = CC_DESIGN_PERSON_AND_ORGANIZATION_ASSIGNMENT ( #243, #205, ( #104 ) ) ;
#63 = CARTESIAN_POINT ( 'NONE',  ( -10.00000000000000178, 0.000000000000000000, 133.0000000000000000 ) ) ;
#64 = CARTESIAN_POINT ( 'NONE',  ( 0.000000000000000000, 0.000000000000000000, 8.000000000000000000 ) ) ;
#65 = FACE_OUTER_BOUND ( 'NONE', #82, .T. ) ;
#66 = AXIS2_PLACEMENT_3D ( 'NONE', #128, #98, #215 ) ;
#67 = PRODUCT_DEFINITION_SHAPE ( 'NONE', 'NONE',  #112 ) ;
#68 = CARTESIAN_POINT ( 'NONE',  ( 0.000000000000000000, 0.000000000000000000, 8.000000000000000000 ) ) ;
#69 = CC_DESIGN_PERSON_AND_ORGANIZATION_ASSIGNMENT ( #153, #114, ( #241 ) ) ;
#70 = CC_DESIGN_DATE_AND_TIME_ASSIGNMENT ( #92, #210, ( #112 ) ) ;
#71 = APPROVAL_PERSON_ORGANIZATION ( #57, #129, #51 ) ;
#72 = CALENDAR_DATE ( 2022, 7, 7 ) ;
#73 = APPROVAL_STATUS ( 'not_yet_approved' ) ;
#74 = ADVANCED_BREP_SHAPE_REPRESENTATION ( 'f72e', ( #42, #187 ), #75 ) ;
#75 =( GEOMETRIC_REPRESENTATION_CONTEXT ( 3 ) GLOBAL_UNCERTAINTY_ASSIGNED_CONTEXT ( ( #168 ) ) GLOBAL_UNIT_ASSIGNED_CONTEXT ( ( #191, #242, #172 ) ) REPRESENTATION_CONTEXT ( 'NONE', 'WORKASPACE' ) );
#76 = APPROVAL_DATE_TIME ( #132, #129 ) ;
#77 = VERTEX_POINT ( 'NONE', #226 ) ;
#78 = DIRECTION ( 'NONE',  ( 0.000000000000000000, 0.000000000000000000, 1.000000000000000000 ) ) ;
#79 = ORIENTED_EDGE ( 'NONE', *, *, #29, .T. ) ;
#80 = PLANE ( 'NONE',  #94 ) ;
#81 = EDGE_CURVE ( 'NONE', #194, #154, #26, .T. ) ;
#82 = EDGE_LOOP ( 'NONE', ( #236, #175, #99, #220 ) ) ;
#83 = AXIS2_PLACEMENT_3D ( 'NONE', #221, #252, #235 ) ;
#84 = CARTESIAN_POINT ( 'NONE',  ( 13.00000000000000178, 1.592040838891559293E-15, 8.000000000000000000 ) ) ;
#85 = CARTESIAN_POINT ( 'NONE',  ( 0.000000000000000000, 0.000000000000000000, 8.000000000000000000 ) ) ;
#86 = CARTESIAN_POINT ( 'NONE',  ( 10.00000000000000178, 1.224646799147353454E-15, 8.000000000000000000 ) ) ;
#87 = CARTESIAN_POINT ( 'NONE',  ( 13.00000000000000178, 1.592040838891559293E-15, 0.000000000000000000 ) ) ;
#88 = CC_DESIGN_PERSON_AND_ORGANIZATION_ASSIGNMENT ( #213, #89, ( #53 ) ) ;
#89 = PERSON_AND_ORGANIZATION_ROLE ( 'classification_officer' ) ;
#90 = LOCAL_TIME ( 19, 4, 13.00000000000000000, #16 ) ;
#91 = APPROVAL_ROLE ( '' ) ;
#92 = DATE_AND_TIME ( #8, #110 ) ;
#93 = DIRECTION ( 'NONE',  ( -0.000000000000000000, -0.000000000000000000, -1.000000000000000000 ) ) ;
#94 = AXIS2_PLACEMENT_3D ( 'NONE', #25, #157, #137 ) ;
#95 = PERSON_AND_ORGANIZATION ( #208, #1 ) ;
#96 = DIRECTION ( 'NONE',  ( -0.000000000000000000, -0.000000000000000000, -1.000000000000000000 ) ) ;
#97 = ADVANCED_FACE ( 'NONE', ( #217 ), #142, .T. ) ;
#98 = DIRECTION ( 'NONE',  ( -0.000000000000000000, -0.000000000000000000, -1.000000000000000000 ) ) ;
#99 = ORIENTED_EDGE ( 'NONE', *, *, #255, .T. ) ;
#100 = DIRECTION ( 'NONE',  ( 0.000000000000000000, 0.000000000000000000, 1.000000000000000000 ) ) ;
#101 = ORIENTED_EDGE ( 'NONE', *, *, #219, .T. ) ;
#102 = AXIS2_PLACEMENT_3D ( 'NONE', #144, #44, #46 ) ;
#103 = DIRECTION ( 'NONE',  ( 1.000000000000000000, 0.000000000000000000, 0.000000000000000000 ) ) ;
#104 = PRODUCT ( 'f72e', 'f72e', '', ( #13 ) ) ;
#105 = CIRCLE ( 'NONE', #28, 13.00000000000000178 ) ;
#106 = EDGE_LOOP ( 'NONE', ( #11, #249, #165, #14 ) ) ;
#107 = DIRECTION ( 'NONE',  ( -0.000000000000000000, -0.000000000000000000, -1.000000000000000000 ) ) ;
#108 = CIRCLE ( 'NONE', #83, 10.00000000000000178 ) ;
#109 = DATE_TIME_ROLE ( 'classification_date' ) ;
#110 = LOCAL_TIME ( 19, 4, 13.00000000000000000, #224 ) ;
#111 = SHAPE_DEFINITION_REPRESENTATION ( #67, #74 ) ;
#112 = PRODUCT_DEFINITION ( 'NEZNÁMÝ', '', #241, #22 ) ;
#113 = DIRECTION ( 'NONE',  ( 1.000000000000000000, 0.000000000000000000, -0.000000000000000000 ) ) ;
#114 = PERSON_AND_ORGANIZATION_ROLE ( 'creator' ) ;
#115 = ORIENTED_EDGE ( 'NONE', *, *, #170, .F. ) ;
#116 = AXIS2_PLACEMENT_3D ( 'NONE', #64, #93, #19 ) ;
#117 = PERSON_AND_ORGANIZATION ( #208, #1 ) ;
#118 = CARTESIAN_POINT ( 'NONE',  ( 0.000000000000000000, 0.000000000000000000, 8.000000000000000000 ) ) ;
#119 = EDGE_LOOP ( 'NONE', ( #115, #183, #79, #207 ) ) ;
#120 = CARTESIAN_POINT ( 'NONE',  ( 10.00000000000000178, 1.224646799147353454E-15, 133.0000000000000000 ) ) ;
#121 = DIRECTION ( 'NONE',  ( 0.000000000000000000, 0.000000000000000000, 1.000000000000000000 ) ) ;
#122 = CARTESIAN_POINT ( 'NONE',  ( 0.000000000000000000, 0.000000000000000000, 8.000000000000000000 ) ) ;
#123 = AXIS2_PLACEMENT_3D ( 'NONE', #85, #41, #113 ) ;
#124 = ADVANCED_FACE ( 'NONE', ( #65 ), #218, .T. ) ;
#125 = ORIENTED_EDGE ( 'NONE', *, *, #225, .F. ) ;
#126 = DIRECTION ( 'NONE',  ( 1.000000000000000000, 0.000000000000000000, 0.000000000000000000 ) ) ;
#127 = APPROVAL_PERSON_ORGANIZATION ( #117, #7, #49 ) ;
#128 = CARTESIAN_POINT ( 'NONE',  ( 0.000000000000000000, 0.000000000000000000, 133.0000000000000000 ) ) ;
#129 = APPROVAL ( #33, 'NEURÈENÝ' ) ;
#130 = AXIS2_PLACEMENT_3D ( 'NONE', #147, #239, #198 ) ;
#131 = CC_DESIGN_APPROVAL ( #164, ( #112 ) ) ;
#132 = DATE_AND_TIME ( #245, #232 ) ;
#133 = DATE_AND_TIME ( #35, #90 ) ;
#134 = DIRECTION ( 'NONE',  ( 0.000000000000000000, 0.000000000000000000, 1.000000000000000000 ) ) ;
#135 = PERSON_AND_ORGANIZATION ( #208, #1 ) ;
#136 = FACE_OUTER_BOUND ( 'NONE', #119, .T. ) ;
#137 = DIRECTION ( 'NONE',  ( 1.000000000000000000, 0.000000000000000000, -0.000000000000000000 ) ) ;
#138 = SECURITY_CLASSIFICATION_LEVEL ( 'unclassified' ) ;
#139 = FACE_BOUND ( 'NONE', #233, .T. ) ;
#140 = LINE ( 'NONE', #120, #169 ) ;
#141 = ORIENTED_EDGE ( 'NONE', *, *, #170, .T. ) ;
#142 = CYLINDRICAL_SURFACE ( 'NONE', #130, 10.00000000000000178 ) ;
#143 = DIRECTION ( 'NONE',  ( 1.000000000000000000, 0.000000000000000000, 0.000000000000000000 ) ) ;
#144 = CARTESIAN_POINT ( 'NONE',  ( 0.000000000000000000, 0.000000000000000000, 0.000000000000000000 ) ) ;
#145 = ORIENTED_EDGE ( 'NONE', *, *, #81, .F. ) ;
#146 = APPLICATION_CONTEXT ( 'configuration controlled 3d designs of mechanical parts and assemblies' ) ;
#147 = CARTESIAN_POINT ( 'NONE',  ( 0.000000000000000000, 0.000000000000000000, 133.0000000000000000 ) ) ;
#148 = EDGE_LOOP ( 'NONE', ( #61, #197 ) ) ;
#149 = EDGE_CURVE ( 'NONE', #156, #77, #20, .T. ) ;
#150 = APPLICATION_PROTOCOL_DEFINITION ( 'international standard', 'config_control_design', 1994, #234 ) ;
#151 = CIRCLE ( 'NONE', #50, 10.00000000000000178 ) ;
#152 = CARTESIAN_POINT ( 'NONE',  ( -13.00000000000000178, 0.000000000000000000, 8.000000000000000000 ) ) ;
#153 = PERSON_AND_ORGANIZATION ( #208, #1 ) ;
#154 = VERTEX_POINT ( 'NONE', #87 ) ;
#155 = ADVANCED_FACE ( 'NONE', ( #204 ), #80, .T. ) ;
#156 = VERTEX_POINT ( 'NONE', #195 ) ;
#157 = DIRECTION ( 'NONE',  ( 0.000000000000000000, 0.000000000000000000, 1.000000000000000000 ) ) ;
#158 = ORIENTED_EDGE ( 'NONE', *, *, #238, .F. ) ;
#159 = DIRECTION ( 'NONE',  ( 0.000000000000000000, 0.000000000000000000, 1.000000000000000000 ) ) ;
#160 = EDGE_LOOP ( 'NONE', ( #251, #141, #17, #246 ) ) ;
#161 = EDGE_CURVE ( 'NONE', #177, #229, #43, .T. ) ;
#162 = PLANE ( 'NONE',  #102 ) ;
#163 = AXIS2_PLACEMENT_3D ( 'NONE', #55, #134, #126 ) ;
#164 = APPROVAL ( #196, 'NEURÈENÝ' ) ;
#165 = ORIENTED_EDGE ( 'NONE', *, *, #161, .T. ) ;
#166 = CARTESIAN_POINT ( 'NONE',  ( -10.00000000000000178, 0.000000000000000000, 133.0000000000000000 ) ) ;
#167 = CC_DESIGN_APPROVAL ( #129, ( #241 ) ) ;
#168 = UNCERTAINTY_MEASURE_WITH_UNIT (LENGTH_MEASURE( 1.000000000000000082E-05 ), #191, 'distance_accuracy_value', 'NONE');
#169 = VECTOR ( 'NONE', #188, 1000.000000000000000 ) ;
#170 = EDGE_CURVE ( 'NONE', #156, #154, #18, .T. ) ;
#171 = CALENDAR_DATE ( 2022, 7, 7 ) ;
#172 =( NAMED_UNIT ( * ) SI_UNIT ( $, .STERADIAN. ) SOLID_ANGLE_UNIT ( ) );
#173 = LOCAL_TIME ( 19, 4, 13.00000000000000000, #190 ) ;
#174 = COORDINATED_UNIVERSAL_TIME_OFFSET ( 1, 0, .AHEAD. ) ;
#175 = ORIENTED_EDGE ( 'NONE', *, *, #214, .T. ) ;
#176 = ADVANCED_FACE ( 'NONE', ( #181 ), #212, .T. ) ;
#177 = VERTEX_POINT ( 'NONE', #166 ) ;
#178 = DIRECTION ( 'NONE',  ( 0.000000000000000000, 0.000000000000000000, 1.000000000000000000 ) ) ;
#179 = DIRECTION ( 'NONE',  ( 0.000000000000000000, 0.000000000000000000, 1.000000000000000000 ) ) ;
#180 = EDGE_LOOP ( 'NONE', ( #101, #199 ) ) ;
#181 = FACE_OUTER_BOUND ( 'NONE', #160, .T. ) ;
#182 = VECTOR ( 'NONE', #96, 1000.000000000000000 ) ;
#183 = ORIENTED_EDGE ( 'NONE', *, *, #219, .F. ) ;
#184 = CARTESIAN_POINT ( 'NONE',  ( 0.000000000000000000, 0.000000000000000000, 8.000000000000000000 ) ) ;
#185 = CC_DESIGN_PERSON_AND_ORGANIZATION_ASSIGNMENT ( #135, #189, ( #112 ) ) ;
#186 = CLOSED_SHELL ( 'NONE', ( #124, #176, #27, #2, #247, #97, #155 ) ) ;
#187 = AXIS2_PLACEMENT_3D ( 'NONE', #227, #179, #54 ) ;
#188 = DIRECTION ( 'NONE',  ( -0.000000000000000000, -0.000000000000000000, -1.000000000000000000 ) ) ;
#189 = PERSON_AND_ORGANIZATION_ROLE ( 'creator' ) ;
#190 = COORDINATED_UNIVERSAL_TIME_OFFSET ( 1, 0, .AHEAD. ) ;
#191 =( LENGTH_UNIT ( ) NAMED_UNIT ( * ) SI_UNIT ( .MILLI., .METRE. ) );
#192 = CARTESIAN_POINT ( 'NONE',  ( 0.000000000000000000, 0.000000000000000000, 133.0000000000000000 ) ) ;
#193 = PERSON_AND_ORGANIZATION ( #208, #1 ) ;
#194 = VERTEX_POINT ( 'NONE', #37 ) ;
#195 = CARTESIAN_POINT ( 'NONE',  ( 13.00000000000000178, 1.592040838891559293E-15, 8.000000000000000000 ) ) ;
#196 = APPROVAL_STATUS ( 'not_yet_approved' ) ;
#197 = ORIENTED_EDGE ( 'NONE', *, *, #240, .T. ) ;
#198 = DIRECTION ( 'NONE',  ( -1.000000000000000000, 0.000000000000000000, 0.000000000000000000 ) ) ;
#199 = ORIENTED_EDGE ( 'NONE', *, *, #149, .T. ) ;
#200 = DIRECTION ( 'NONE',  ( 1.000000000000000000, 0.000000000000000000, 0.000000000000000000 ) ) ;
#201 = CC_DESIGN_SECURITY_CLASSIFICATION ( #53, ( #241 ) ) ;
#202 = AXIS2_PLACEMENT_3D ( 'NONE', #122, #159, #200 ) ;
#203 = APPROVAL_PERSON_ORGANIZATION ( #193, #164, #91 ) ;
#204 = FACE_OUTER_BOUND ( 'NONE', #148, .T. ) ;
#205 = PERSON_AND_ORGANIZATION_ROLE ( 'design_owner' ) ;
#206 = APPLICATION_PROTOCOL_DEFINITION ( 'international standard', 'config_control_design', 1994, #146 ) ;
#207 = ORIENTED_EDGE ( 'NONE', *, *, #81, .T. ) ;
#208 = PERSON ( 'NEURÈENÝ', 'NEURÈENÝ', 'NEURÈENÝ', ('NEURÈENÝ'), ('NEURÈENÝ'), ('NEURÈENÝ') ) ;
#209 = DATE_AND_TIME ( #171, #244 ) ;
#210 = DATE_TIME_ROLE ( 'creation_date' ) ;
#211 = LINE ( 'NONE', #152, #182 ) ;
#212 = CYLINDRICAL_SURFACE ( 'NONE', #24, 13.00000000000000178 ) ;
#213 = PERSON_AND_ORGANIZATION ( #208, #1 ) ;
#214 = EDGE_CURVE ( 'NONE', #34, #216, #140, .T. ) ;
#215 = DIRECTION ( 'NONE',  ( -1.000000000000000000, 0.000000000000000000, 0.000000000000000000 ) ) ;
#216 = VERTEX_POINT ( 'NONE', #86 ) ;
#217 = FACE_OUTER_BOUND ( 'NONE', #106, .T. ) ;
#218 = CYLINDRICAL_SURFACE ( 'NONE', #66, 10.00000000000000178 ) ;
#219 = EDGE_CURVE ( 'NONE', #77, #156, #223, .T. ) ;
#220 = ORIENTED_EDGE ( 'NONE', *, *, #161, .F. ) ;
#221 = CARTESIAN_POINT ( 'NONE',  ( 0.000000000000000000, 0.000000000000000000, 133.0000000000000000 ) ) ;
#222 = CC_DESIGN_DATE_AND_TIME_ASSIGNMENT ( #48, #109, ( #53 ) ) ;
#223 = CIRCLE ( 'NONE', #202, 13.00000000000000178 ) ;
#224 = COORDINATED_UNIVERSAL_TIME_OFFSET ( 1, 0, .AHEAD. ) ;
#225 = EDGE_CURVE ( 'NONE', #229, #216, #230, .T. ) ;
#226 = CARTESIAN_POINT ( 'NONE',  ( -13.00000000000000178, 0.000000000000000000, 8.000000000000000000 ) ) ;
#227 = CARTESIAN_POINT ( 'NONE',  ( 0.000000000000000000, 0.000000000000000000, 0.000000000000000000 ) ) ;
#228 = FACE_OUTER_BOUND ( 'NONE', #180, .T. ) ;
#229 = VERTEX_POINT ( 'NONE', #3 ) ;
#230 = CIRCLE ( 'NONE', #59, 10.00000000000000178 ) ;
#231 = DIRECTION ( 'NONE',  ( -0.000000000000000000, -0.000000000000000000, -1.000000000000000000 ) ) ;
#232 = LOCAL_TIME ( 19, 4, 13.00000000000000000, #174 ) ;
#233 = EDGE_LOOP ( 'NONE', ( #125, #58 ) ) ;
#234 = APPLICATION_CONTEXT ( 'configuration controlled 3d designs of mechanical parts and assemblies' ) ;
#235 = DIRECTION ( 'NONE',  ( 1.000000000000000000, 0.000000000000000000, 0.000000000000000000 ) ) ;
#236 = ORIENTED_EDGE ( 'NONE', *, *, #240, .F. ) ;
#237 = DIRECTION ( 'NONE',  ( 0.000000000000000000, 0.000000000000000000, 1.000000000000000000 ) ) ;
#238 = EDGE_CURVE ( 'NONE', #154, #194, #105, .T. ) ;
#239 = DIRECTION ( 'NONE',  ( -0.000000000000000000, -0.000000000000000000, -1.000000000000000000 ) ) ;
#240 = EDGE_CURVE ( 'NONE', #34, #177, #108, .T. ) ;
#241 = PRODUCT_DEFINITION_FORMATION_WITH_SPECIFIED_SOURCE ( 'LIBOVOLNÝ', '', #104, .NOT_KNOWN. ) ;
#242 =( NAMED_UNIT ( * ) PLANE_ANGLE_UNIT ( ) SI_UNIT ( $, .RADIAN. ) );
#243 = PERSON_AND_ORGANIZATION ( #208, #1 ) ;
#244 = LOCAL_TIME ( 19, 4, 13.00000000000000000, #9 ) ;
#245 = CALENDAR_DATE ( 2022, 7, 7 ) ;
#246 = ORIENTED_EDGE ( 'NONE', *, *, #29, .F. ) ;
#247 = ADVANCED_FACE ( 'NONE', ( #254 ), #162, .F. ) ;
#248 = PERSON_AND_ORGANIZATION_ROLE ( 'design_supplier' ) ;
#249 = ORIENTED_EDGE ( 'NONE', *, *, #6, .F. ) ;
#250 = DIRECTION ( 'NONE',  ( 1.000000000000000000, 0.000000000000000000, 0.000000000000000000 ) ) ;
#251 = ORIENTED_EDGE ( 'NONE', *, *, #149, .F. ) ;
#252 = DIRECTION ( 'NONE',  ( 0.000000000000000000, 0.000000000000000000, 1.000000000000000000 ) ) ;
#253 = PLANE ( 'NONE',  #123 ) ;
#254 = FACE_OUTER_BOUND ( 'NONE', #39, .T. ) ;
#255 = EDGE_CURVE ( 'NONE', #216, #229, #151, .T. ) ;
ENDSEC;
END-ISO-10303-21;
