ISO-10303-21;
HEADER;
FILE_DESCRIPTION (( 'STEP AP203' ),
    '1' );
FILE_NAME ('f4d7.STEP',
    '2022-07-07T17:28:00',
    ( '' ),
    ( '' ),
    'SwSTEP 2.0',
    'SolidWorks 2019',
    '' );
FILE_SCHEMA (( 'CONFIG_CONTROL_DESIGN' ));
ENDSEC;

DATA;
#1 = CARTESIAN_POINT ( 'NONE',  ( 0.000000000000000000, 0.000000000000000000, 505.0000000000000000 ) ) ;
#2 = VERTEX_POINT ( 'NONE', #13 ) ;
#3 = CARTESIAN_POINT ( 'NONE',  ( 0.000000000000000000, 0.000000000000000000, 505.0000000000000000 ) ) ;
#4 = VECTOR ( 'NONE', #168, 1000.000000000000000 ) ;
#5 = CARTESIAN_POINT ( 'NONE',  ( 0.000000000000000000, 0.000000000000000000, 505.0000000000000000 ) ) ;
#6 = DATE_TIME_ROLE ( 'classification_date' ) ;
#7 = EDGE_CURVE ( 'NONE', #65, #2, #179, .T. ) ;
#8 = CLOSED_SHELL ( 'NONE', ( #197, #63, #61, #118, #244, #101, #188 ) ) ;
#9 = DATE_AND_TIME ( #64, #98 ) ;
#10 = VERTEX_POINT ( 'NONE', #46 ) ;
#11 = PERSON_AND_ORGANIZATION_ROLE ( 'design_owner' ) ;
#12 = ADVANCED_BREP_SHAPE_REPRESENTATION ( 'f4d7', ( #48, #30 ), #217 ) ;
#13 = CARTESIAN_POINT ( 'NONE',  ( -7.000000000000000000, 0.000000000000000000, 5.000000000000000000 ) ) ;
#14 = DIRECTION ( 'NONE',  ( 0.000000000000000000, 0.000000000000000000, 1.000000000000000000 ) ) ;
#15 = ORIENTED_EDGE ( 'NONE', *, *, #137, .T. ) ;
#16 = LINE ( 'NONE', #88, #255 ) ;
#17 = CARTESIAN_POINT ( 'NONE',  ( 0.000000000000000000, 0.000000000000000000, 5.000000000000000000 ) ) ;
#18 = CARTESIAN_POINT ( 'NONE',  ( 4.500000000000000000, 5.510910596163088569E-16, 505.0000000000000000 ) ) ;
#19 = DIRECTION ( 'NONE',  ( 1.000000000000000000, 0.000000000000000000, 0.000000000000000000 ) ) ;
#20 = AXIS2_PLACEMENT_3D ( 'NONE', #67, #157, #76 ) ;
#21 = PRODUCT_RELATED_PRODUCT_CATEGORY ( 'detail', '', ( #121 ) ) ;
#22 = CARTESIAN_POINT ( 'NONE',  ( 0.000000000000000000, 0.000000000000000000, 0.000000000000000000 ) ) ;
#23 = PERSON_AND_ORGANIZATION ( #237, #133 ) ;
#24 = EDGE_CURVE ( 'NONE', #68, #150, #253, .T. ) ;
#25 = PRODUCT_DEFINITION_FORMATION_WITH_SPECIFIED_SOURCE ( 'LIBOVOLNÝ', '', #121, .NOT_KNOWN. ) ;
#26 = CC_DESIGN_PERSON_AND_ORGANIZATION_ASSIGNMENT ( #167, #97, ( #41 ) ) ;
#27 = CALENDAR_DATE ( 2022, 7, 7 ) ;
#28 = CIRCLE ( 'NONE', #57, 4.500000000000000000 ) ;
#29 = EDGE_LOOP ( 'NONE', ( #102, #130 ) ) ;
#30 = AXIS2_PLACEMENT_3D ( 'NONE', #147, #14, #181 ) ;
#31 = CARTESIAN_POINT ( 'NONE',  ( 4.500000000000000000, 5.510910596163088569E-16, 5.000000000000000000 ) ) ;
#32 = EDGE_LOOP ( 'NONE', ( #182, #201 ) ) ;
#33 = CIRCLE ( 'NONE', #20, 7.000000000000000000 ) ;
#34 = DIRECTION ( 'NONE',  ( 1.000000000000000000, 0.000000000000000000, 0.000000000000000000 ) ) ;
#35 = ORIENTED_EDGE ( 'NONE', *, *, #198, .T. ) ;
#36 = CARTESIAN_POINT ( 'NONE',  ( -4.500000000000000000, 0.000000000000000000, 5.000000000000000000 ) ) ;
#37 = SECURITY_CLASSIFICATION ( '', '', #123 ) ;
#38 = ORIENTED_EDGE ( 'NONE', *, *, #142, .F. ) ;
#39 = DIRECTION ( 'NONE',  ( 0.000000000000000000, 0.000000000000000000, 1.000000000000000000 ) ) ;
#40 = CYLINDRICAL_SURFACE ( 'NONE', #96, 4.500000000000000000 ) ;
#41 = PRODUCT_DEFINITION ( 'NEZNÁMÝ', '', #25, #91 ) ;
#42 = CC_DESIGN_DATE_AND_TIME_ASSIGNMENT ( #9, #151, ( #41 ) ) ;
#43 = COORDINATED_UNIVERSAL_TIME_OFFSET ( 1, 0, .AHEAD. ) ;
#44 = ORIENTED_EDGE ( 'NONE', *, *, #154, .F. ) ;
#45 = APPLICATION_PROTOCOL_DEFINITION ( 'international standard', 'config_control_design', 1994, #202 ) ;
#46 = CARTESIAN_POINT ( 'NONE',  ( -4.500000000000000000, 0.000000000000000000, 505.0000000000000000 ) ) ;
#47 = PERSON_AND_ORGANIZATION_ROLE ( 'design_supplier' ) ;
#48 = MANIFOLD_SOLID_BREP ( 'Pøidat vysunutím3', #8 ) ;
#49 = ORIENTED_EDGE ( 'NONE', *, *, #24, .T. ) ;
#50 = APPROVAL_STATUS ( 'not_yet_approved' ) ;
#51 = CARTESIAN_POINT ( 'NONE',  ( 7.000000000000000000, 8.572527594031473190E-16, 5.000000000000000000 ) ) ;
#52 = DIRECTION ( 'NONE',  ( 0.000000000000000000, 0.000000000000000000, 1.000000000000000000 ) ) ;
#53 = APPROVAL_STATUS ( 'not_yet_approved' ) ;
#54 = AXIS2_PLACEMENT_3D ( 'NONE', #249, #52, #143 ) ;
#55 = DIRECTION ( 'NONE',  ( 0.000000000000000000, 0.000000000000000000, 1.000000000000000000 ) ) ;
#56 = EDGE_LOOP ( 'NONE', ( #38, #119, #49, #127 ) ) ;
#57 = AXIS2_PLACEMENT_3D ( 'NONE', #105, #39, #134 ) ;
#58 = CC_DESIGN_APPROVAL ( #160, ( #41 ) ) ;
#59 = CARTESIAN_POINT ( 'NONE',  ( 0.000000000000000000, 0.000000000000000000, 505.0000000000000000 ) ) ;
#60 = DIRECTION ( 'NONE',  ( -0.000000000000000000, -0.000000000000000000, -1.000000000000000000 ) ) ;
#61 = ADVANCED_FACE ( 'NONE', ( #208 ), #106, .T. ) ;
#62 = PERSON_AND_ORGANIZATION ( #237, #133 ) ;
#63 = ADVANCED_FACE ( 'NONE', ( #87 ), #252, .T. ) ;
#64 = CALENDAR_DATE ( 2022, 7, 7 ) ;
#65 = VERTEX_POINT ( 'NONE', #204 ) ;
#66 = APPLICATION_PROTOCOL_DEFINITION ( 'international standard', 'config_control_design', 1994, #254 ) ;
#67 = CARTESIAN_POINT ( 'NONE',  ( 0.000000000000000000, 0.000000000000000000, 0.000000000000000000 ) ) ;
#68 = VERTEX_POINT ( 'NONE', #31 ) ;
#69 = COORDINATED_UNIVERSAL_TIME_OFFSET ( 1, 0, .AHEAD. ) ;
#70 = DIRECTION ( 'NONE',  ( 0.000000000000000000, 0.000000000000000000, 1.000000000000000000 ) ) ;
#71 = CARTESIAN_POINT ( 'NONE',  ( 0.000000000000000000, 0.000000000000000000, 5.000000000000000000 ) ) ;
#72 = AXIS2_PLACEMENT_3D ( 'NONE', #122, #169, #140 ) ;
#73 = DIRECTION ( 'NONE',  ( -0.000000000000000000, -0.000000000000000000, -1.000000000000000000 ) ) ;
#74 = FACE_OUTER_BOUND ( 'NONE', #103, .T. ) ;
#75 = AXIS2_PLACEMENT_3D ( 'NONE', #5, #70, #233 ) ;
#76 = DIRECTION ( 'NONE',  ( 1.000000000000000000, 0.000000000000000000, 0.000000000000000000 ) ) ;
#77 = EDGE_CURVE ( 'NONE', #242, #183, #33, .T. ) ;
#78 = AXIS2_PLACEMENT_3D ( 'NONE', #17, #83, #224 ) ;
#79 = AXIS2_PLACEMENT_3D ( 'NONE', #109, #190, #19 ) ;
#80 = CC_DESIGN_PERSON_AND_ORGANIZATION_ASSIGNMENT ( #62, #141, ( #25 ) ) ;
#81 = ORIENTED_EDGE ( 'NONE', *, *, #238, .T. ) ;
#82 =( NAMED_UNIT ( * ) SI_UNIT ( $, .STERADIAN. ) SOLID_ANGLE_UNIT ( ) );
#83 = DIRECTION ( 'NONE',  ( -0.000000000000000000, -0.000000000000000000, -1.000000000000000000 ) ) ;
#84 = EDGE_LOOP ( 'NONE', ( #99, #15, #90, #180 ) ) ;
#85 = APPROVAL_DATE_TIME ( #243, #160 ) ;
#86 = DIRECTION ( 'NONE',  ( -0.000000000000000000, -0.000000000000000000, -1.000000000000000000 ) ) ;
#87 = FACE_OUTER_BOUND ( 'NONE', #84, .T. ) ;
#88 = CARTESIAN_POINT ( 'NONE',  ( 4.500000000000000000, 5.510910596163088569E-16, 505.0000000000000000 ) ) ;
#89 = CC_DESIGN_DATE_AND_TIME_ASSIGNMENT ( #196, #6, ( #37 ) ) ;
#90 = ORIENTED_EDGE ( 'NONE', *, *, #77, .T. ) ;
#91 = DESIGN_CONTEXT ( 'detailed design', #202, 'design' ) ;
#92 = LINE ( 'NONE', #126, #4 ) ;
#93 = PERSON_AND_ORGANIZATION ( #237, #133 ) ;
#94 = CARTESIAN_POINT ( 'NONE',  ( -7.000000000000000000, 0.000000000000000000, 5.000000000000000000 ) ) ;
#95 = PERSON_AND_ORGANIZATION_ROLE ( 'classification_officer' ) ;
#96 = AXIS2_PLACEMENT_3D ( 'NONE', #59, #60, #155 ) ;
#97 = PERSON_AND_ORGANIZATION_ROLE ( 'creator' ) ;
#98 = LOCAL_TIME ( 19, 28, 0.000000000000000000, #69 ) ;
#99 = ORIENTED_EDGE ( 'NONE', *, *, #7, .F. ) ;
#100 = PERSON_AND_ORGANIZATION ( #237, #133 ) ;
#101 = ADVANCED_FACE ( 'NONE', ( #176 ), #40, .T. ) ;
#102 = ORIENTED_EDGE ( 'NONE', *, *, #238, .F. ) ;
#103 = EDGE_LOOP ( 'NONE', ( #189, #124 ) ) ;
#104 = MECHANICAL_CONTEXT ( 'NONE', #254, 'mechanical' ) ;
#105 = CARTESIAN_POINT ( 'NONE',  ( 0.000000000000000000, 0.000000000000000000, 5.000000000000000000 ) ) ;
#106 = CYLINDRICAL_SURFACE ( 'NONE', #78, 7.000000000000000000 ) ;
#107 = APPROVAL_PERSON_ORGANIZATION ( #100, #160, #125 ) ;
#108 = DIRECTION ( 'NONE',  ( 1.000000000000000000, 0.000000000000000000, 0.000000000000000000 ) ) ;
#109 = CARTESIAN_POINT ( 'NONE',  ( 0.000000000000000000, 0.000000000000000000, 5.000000000000000000 ) ) ;
#110 = FACE_OUTER_BOUND ( 'NONE', #56, .T. ) ;
#111 = COORDINATED_UNIVERSAL_TIME_OFFSET ( 1, 0, .AHEAD. ) ;
#112 = UNCERTAINTY_MEASURE_WITH_UNIT (LENGTH_MEASURE( 1.000000000000000082E-05 ), #225, 'distance_accuracy_value', 'NONE');
#113 = APPROVAL ( #174, 'NEURÈENÝ' ) ;
#114 = VERTEX_POINT ( 'NONE', #18 ) ;
#115 = DATE_AND_TIME ( #159, #248 ) ;
#116 = APPROVAL_DATE_TIME ( #241, #131 ) ;
#117 = CIRCLE ( 'NONE', #220, 4.500000000000000000 ) ;
#118 = ADVANCED_FACE ( 'NONE', ( #149, #229 ), #129, .T. ) ;
#119 = ORIENTED_EDGE ( 'NONE', *, *, #158, .T. ) ;
#120 = PERSON_AND_ORGANIZATION ( #237, #133 ) ;
#121 = PRODUCT ( 'f4d7', 'f4d7', '', ( #104 ) ) ;
#122 = CARTESIAN_POINT ( 'NONE',  ( 0.000000000000000000, 0.000000000000000000, 5.000000000000000000 ) ) ;
#123 = SECURITY_CLASSIFICATION_LEVEL ( 'unclassified' ) ;
#124 = ORIENTED_EDGE ( 'NONE', *, *, #77, .F. ) ;
#125 = APPROVAL_ROLE ( '' ) ;
#126 = CARTESIAN_POINT ( 'NONE',  ( -4.500000000000000000, 0.000000000000000000, 505.0000000000000000 ) ) ;
#127 = ORIENTED_EDGE ( 'NONE', *, *, #193, .F. ) ;
#128 = APPROVAL_ROLE ( '' ) ;
#129 = PLANE ( 'NONE',  #170 ) ;
#130 = ORIENTED_EDGE ( 'NONE', *, *, #24, .F. ) ;
#131 = APPROVAL ( #53, 'NEURÈENÝ' ) ;
#132 = DIRECTION ( 'NONE',  ( 0.000000000000000000, 0.000000000000000000, 1.000000000000000000 ) ) ;
#133 = ORGANIZATION ( 'NEURÈENÝ', 'NEURÈENÝ', '' ) ;
#134 = DIRECTION ( 'NONE',  ( 1.000000000000000000, 0.000000000000000000, 0.000000000000000000 ) ) ;
#135 = CC_DESIGN_PERSON_AND_ORGANIZATION_ASSIGNMENT ( #93, #95, ( #37 ) ) ;
#136 = AXIS2_PLACEMENT_3D ( 'NONE', #1, #86, #192 ) ;
#137 = EDGE_CURVE ( 'NONE', #65, #242, #226, .T. ) ;
#138 = CIRCLE ( 'NONE', #175, 7.000000000000000000 ) ;
#139 = CC_DESIGN_APPROVAL ( #131, ( #25 ) ) ;
#140 = DIRECTION ( 'NONE',  ( 1.000000000000000000, 0.000000000000000000, 0.000000000000000000 ) ) ;
#141 = PERSON_AND_ORGANIZATION_ROLE ( 'creator' ) ;
#142 = EDGE_CURVE ( 'NONE', #114, #10, #117, .T. ) ;
#143 = DIRECTION ( 'NONE',  ( 1.000000000000000000, 0.000000000000000000, 0.000000000000000000 ) ) ;
#144 = DIRECTION ( 'NONE',  ( 1.000000000000000000, 0.000000000000000000, -0.000000000000000000 ) ) ;
#145 = CC_DESIGN_PERSON_AND_ORGANIZATION_ASSIGNMENT ( #199, #11, ( #121 ) ) ;
#146 = EDGE_LOOP ( 'NONE', ( #164, #227, #245, #35 ) ) ;
#147 = CARTESIAN_POINT ( 'NONE',  ( 0.000000000000000000, 0.000000000000000000, 0.000000000000000000 ) ) ;
#148 = CC_DESIGN_SECURITY_CLASSIFICATION ( #37, ( #25 ) ) ;
#149 = FACE_BOUND ( 'NONE', #29, .T. ) ;
#150 = VERTEX_POINT ( 'NONE', #36 ) ;
#151 = DATE_TIME_ROLE ( 'creation_date' ) ;
#152 = CARTESIAN_POINT ( 'NONE',  ( 0.000000000000000000, 0.000000000000000000, 505.0000000000000000 ) ) ;
#153 = DIRECTION ( 'NONE',  ( -0.000000000000000000, -0.000000000000000000, -1.000000000000000000 ) ) ;
#154 = EDGE_CURVE ( 'NONE', #10, #114, #191, .T. ) ;
#155 = DIRECTION ( 'NONE',  ( -1.000000000000000000, 0.000000000000000000, 0.000000000000000000 ) ) ;
#156 = LINE ( 'NONE', #94, #162 ) ;
#157 = DIRECTION ( 'NONE',  ( 0.000000000000000000, 0.000000000000000000, 1.000000000000000000 ) ) ;
#158 = EDGE_CURVE ( 'NONE', #114, #68, #16, .T. ) ;
#159 = CALENDAR_DATE ( 2022, 7, 7 ) ;
#160 = APPROVAL ( #50, 'NEURÈENÝ' ) ;
#161 = VECTOR ( 'NONE', #209, 1000.000000000000000 ) ;
#162 = VECTOR ( 'NONE', #73, 1000.000000000000000 ) ;
#163 = ORIENTED_EDGE ( 'NONE', *, *, #158, .F. ) ;
#164 = ORIENTED_EDGE ( 'NONE', *, *, #137, .F. ) ;
#165 = LOCAL_TIME ( 19, 28, 0.000000000000000000, #111 ) ;
#166 = EDGE_LOOP ( 'NONE', ( #221, #205 ) ) ;
#167 = PERSON_AND_ORGANIZATION ( #237, #133 ) ;
#168 = DIRECTION ( 'NONE',  ( -0.000000000000000000, -0.000000000000000000, -1.000000000000000000 ) ) ;
#169 = DIRECTION ( 'NONE',  ( 0.000000000000000000, 0.000000000000000000, 1.000000000000000000 ) ) ;
#170 = AXIS2_PLACEMENT_3D ( 'NONE', #187, #55, #185 ) ;
#171 = LOCAL_TIME ( 19, 28, 0.000000000000000000, #184 ) ;
#172 = PLANE ( 'NONE',  #75 ) ;
#173 = CARTESIAN_POINT ( 'NONE',  ( 7.000000000000000000, 8.572527594031473190E-16, 0.000000000000000000 ) ) ;
#174 = APPROVAL_STATUS ( 'not_yet_approved' ) ;
#175 = AXIS2_PLACEMENT_3D ( 'NONE', #22, #247, #34 ) ;
#176 = FACE_OUTER_BOUND ( 'NONE', #186, .T. ) ;
#177 = LOCAL_TIME ( 19, 28, 0.000000000000000000, #43 ) ;
#178 = APPROVAL_ROLE ( '' ) ;
#179 = CIRCLE ( 'NONE', #54, 7.000000000000000000 ) ;
#180 = ORIENTED_EDGE ( 'NONE', *, *, #214, .F. ) ;
#181 = DIRECTION ( 'NONE',  ( 1.000000000000000000, 0.000000000000000000, 0.000000000000000000 ) ) ;
#182 = ORIENTED_EDGE ( 'NONE', *, *, #154, .T. ) ;
#183 = VERTEX_POINT ( 'NONE', #251 ) ;
#184 = COORDINATED_UNIVERSAL_TIME_OFFSET ( 1, 0, .AHEAD. ) ;
#185 = DIRECTION ( 'NONE',  ( 1.000000000000000000, 0.000000000000000000, -0.000000000000000000 ) ) ;
#186 = EDGE_LOOP ( 'NONE', ( #163, #44, #230, #81 ) ) ;
#187 = CARTESIAN_POINT ( 'NONE',  ( 0.000000000000000000, 0.000000000000000000, 5.000000000000000000 ) ) ;
#188 = ADVANCED_FACE ( 'NONE', ( #235 ), #172, .T. ) ;
#189 = ORIENTED_EDGE ( 'NONE', *, *, #198, .F. ) ;
#190 = DIRECTION ( 'NONE',  ( 0.000000000000000000, 0.000000000000000000, 1.000000000000000000 ) ) ;
#191 = CIRCLE ( 'NONE', #211, 4.500000000000000000 ) ;
#192 = DIRECTION ( 'NONE',  ( -1.000000000000000000, 0.000000000000000000, 0.000000000000000000 ) ) ;
#193 = EDGE_CURVE ( 'NONE', #10, #150, #92, .T. ) ;
#194 = CALENDAR_DATE ( 2022, 7, 7 ) ;
#195 = CIRCLE ( 'NONE', #79, 7.000000000000000000 ) ;
#196 = DATE_AND_TIME ( #194, #165 ) ;
#197 = ADVANCED_FACE ( 'NONE', ( #110 ), #207, .T. ) ;
#198 = EDGE_CURVE ( 'NONE', #183, #242, #138, .T. ) ;
#199 = PERSON_AND_ORGANIZATION ( #237, #133 ) ;
#200 = CC_DESIGN_PERSON_AND_ORGANIZATION_ASSIGNMENT ( #120, #47, ( #25 ) ) ;
#201 = ORIENTED_EDGE ( 'NONE', *, *, #142, .T. ) ;
#202 = APPLICATION_CONTEXT ( 'configuration controlled 3d designs of mechanical parts and assemblies' ) ;
#203 = APPROVAL_PERSON_ORGANIZATION ( #228, #131, #128 ) ;
#204 = CARTESIAN_POINT ( 'NONE',  ( 7.000000000000000000, 8.572527594031473190E-16, 5.000000000000000000 ) ) ;
#205 = ORIENTED_EDGE ( 'NONE', *, *, #7, .T. ) ;
#206 = PLANE ( 'NONE',  #231 ) ;
#207 = CYLINDRICAL_SURFACE ( 'NONE', #136, 4.500000000000000000 ) ;
#208 = FACE_OUTER_BOUND ( 'NONE', #146, .T. ) ;
#209 = DIRECTION ( 'NONE',  ( -0.000000000000000000, -0.000000000000000000, -1.000000000000000000 ) ) ;
#210 = APPROVAL_PERSON_ORGANIZATION ( #23, #113, #178 ) ;
#211 = AXIS2_PLACEMENT_3D ( 'NONE', #3, #132, #108 ) ;
#212 = DIRECTION ( 'NONE',  ( 1.000000000000000000, 0.000000000000000000, 0.000000000000000000 ) ) ;
#213 = DIRECTION ( 'NONE',  ( 0.000000000000000000, 0.000000000000000000, 1.000000000000000000 ) ) ;
#214 = EDGE_CURVE ( 'NONE', #2, #183, #156, .T. ) ;
#215 = APPROVAL_DATE_TIME ( #115, #113 ) ;
#216 = AXIS2_PLACEMENT_3D ( 'NONE', #71, #153, #218 ) ;
#217 =( GEOMETRIC_REPRESENTATION_CONTEXT ( 3 ) GLOBAL_UNCERTAINTY_ASSIGNED_CONTEXT ( ( #112 ) ) GLOBAL_UNIT_ASSIGNED_CONTEXT ( ( #225, #246, #82 ) ) REPRESENTATION_CONTEXT ( 'NONE', 'WORKASPACE' ) );
#218 = DIRECTION ( 'NONE',  ( -1.000000000000000000, 0.000000000000000000, 0.000000000000000000 ) ) ;
#219 = DIRECTION ( 'NONE',  ( 0.000000000000000000, 0.000000000000000000, 1.000000000000000000 ) ) ;
#220 = AXIS2_PLACEMENT_3D ( 'NONE', #152, #213, #212 ) ;
#221 = ORIENTED_EDGE ( 'NONE', *, *, #240, .T. ) ;
#222 = CALENDAR_DATE ( 2022, 7, 7 ) ;
#223 = CC_DESIGN_APPROVAL ( #113, ( #37 ) ) ;
#224 = DIRECTION ( 'NONE',  ( -1.000000000000000000, 0.000000000000000000, 0.000000000000000000 ) ) ;
#225 =( LENGTH_UNIT ( ) NAMED_UNIT ( * ) SI_UNIT ( .MILLI., .METRE. ) );
#226 = LINE ( 'NONE', #51, #161 ) ;
#227 = ORIENTED_EDGE ( 'NONE', *, *, #240, .F. ) ;
#228 = PERSON_AND_ORGANIZATION ( #237, #133 ) ;
#229 = FACE_OUTER_BOUND ( 'NONE', #166, .T. ) ;
#230 = ORIENTED_EDGE ( 'NONE', *, *, #193, .T. ) ;
#231 = AXIS2_PLACEMENT_3D ( 'NONE', #250, #219, #144 ) ;
#232 = DIRECTION ( 'NONE',  ( -0.000000000000000000, -0.000000000000000000, -1.000000000000000000 ) ) ;
#233 = DIRECTION ( 'NONE',  ( 1.000000000000000000, 0.000000000000000000, -0.000000000000000000 ) ) ;
#234 = COORDINATED_UNIVERSAL_TIME_OFFSET ( 1, 0, .AHEAD. ) ;
#235 = FACE_OUTER_BOUND ( 'NONE', #32, .T. ) ;
#236 = SHAPE_DEFINITION_REPRESENTATION ( #239, #12 ) ;
#237 = PERSON ( 'NEURÈENÝ', 'NEURÈENÝ', 'NEURÈENÝ', ('NEURÈENÝ'), ('NEURÈENÝ'), ('NEURÈENÝ') ) ;
#238 = EDGE_CURVE ( 'NONE', #150, #68, #28, .T. ) ;
#239 = PRODUCT_DEFINITION_SHAPE ( 'NONE', 'NONE',  #41 ) ;
#240 = EDGE_CURVE ( 'NONE', #2, #65, #195, .T. ) ;
#241 = DATE_AND_TIME ( #222, #177 ) ;
#242 = VERTEX_POINT ( 'NONE', #173 ) ;
#243 = DATE_AND_TIME ( #27, #171 ) ;
#244 = ADVANCED_FACE ( 'NONE', ( #74 ), #206, .F. ) ;
#245 = ORIENTED_EDGE ( 'NONE', *, *, #214, .T. ) ;
#246 =( NAMED_UNIT ( * ) PLANE_ANGLE_UNIT ( ) SI_UNIT ( $, .RADIAN. ) );
#247 = DIRECTION ( 'NONE',  ( 0.000000000000000000, 0.000000000000000000, 1.000000000000000000 ) ) ;
#248 = LOCAL_TIME ( 19, 28, 0.000000000000000000, #234 ) ;
#249 = CARTESIAN_POINT ( 'NONE',  ( 0.000000000000000000, 0.000000000000000000, 5.000000000000000000 ) ) ;
#250 = CARTESIAN_POINT ( 'NONE',  ( 0.000000000000000000, 0.000000000000000000, 0.000000000000000000 ) ) ;
#251 = CARTESIAN_POINT ( 'NONE',  ( -7.000000000000000000, 0.000000000000000000, 0.000000000000000000 ) ) ;
#252 = CYLINDRICAL_SURFACE ( 'NONE', #216, 7.000000000000000000 ) ;
#253 = CIRCLE ( 'NONE', #72, 4.500000000000000000 ) ;
#254 = APPLICATION_CONTEXT ( 'configuration controlled 3d designs of mechanical parts and assemblies' ) ;
#255 = VECTOR ( 'NONE', #232, 1000.000000000000000 ) ;
ENDSEC;
END-ISO-10303-21;
