ISO-10303-21;
HEADER;
FILE_DESCRIPTION (( 'STEP AP203' ),
    '1' );
FILE_NAME ('53d5.STEP',
    '2022-07-07T17:37:00',
    ( '' ),
    ( '' ),
    'SwSTEP 2.0',
    'SolidWorks 2019',
    '' );
FILE_SCHEMA (( 'CONFIG_CONTROL_DESIGN' ));
ENDSEC;

DATA;
#1 = VERTEX_POINT ( 'NONE', #214 ) ;
#2 = DATE_AND_TIME ( #103, #229 ) ;
#3 = PLANE ( 'NONE',  #182 ) ;
#4 = PERSON_AND_ORGANIZATION_ROLE ( 'design_owner' ) ;
#5 = EDGE_LOOP ( 'NONE', ( #141, #181, #251, #163 ) ) ;
#6 = DATE_AND_TIME ( #99, #33 ) ;
#7 = APPROVAL_DATE_TIME ( #2, #236 ) ;
#8 = CIRCLE ( 'NONE', #201, 3.250000000000000444 ) ;
#9 = PERSON_AND_ORGANIZATION ( #11, #151 ) ;
#10 = CARTESIAN_POINT ( 'NONE',  ( 6.000000000000000888, 7.347880794884120722E-16, 5.000000000000000000 ) ) ;
#11 = PERSON ( 'NEURÈENÝ', 'NEURÈENÝ', 'NEURÈENÝ', ('NEURÈENÝ'), ('NEURÈENÝ'), ('NEURÈENÝ') ) ;
#12 = AXIS2_PLACEMENT_3D ( 'NONE', #92, #142, #215 ) ;
#13 = CARTESIAN_POINT ( 'NONE',  ( -6.000000000000000888, 0.000000000000000000, 0.000000000000000000 ) ) ;
#14 = CARTESIAN_POINT ( 'NONE',  ( 3.250000000000000444, 3.980102097228898231E-16, 405.0000000000000000 ) ) ;
#15 = CC_DESIGN_PERSON_AND_ORGANIZATION_ASSIGNMENT ( #168, #23, ( #34 ) ) ;
#16 = CIRCLE ( 'NONE', #140, 6.000000000000000888 ) ;
#17 = VERTEX_POINT ( 'NONE', #52 ) ;
#18 = EDGE_LOOP ( 'NONE', ( #22, #233 ) ) ;
#19 = DIRECTION ( 'NONE',  ( -0.000000000000000000, -0.000000000000000000, -1.000000000000000000 ) ) ;
#20 = AXIS2_PLACEMENT_3D ( 'NONE', #26, #90, #173 ) ;
#21 = DIRECTION ( 'NONE',  ( -0.000000000000000000, -0.000000000000000000, -1.000000000000000000 ) ) ;
#22 = ORIENTED_EDGE ( 'NONE', *, *, #232, .T. ) ;
#23 = PERSON_AND_ORGANIZATION_ROLE ( 'classification_officer' ) ;
#24 = DIRECTION ( 'NONE',  ( 0.000000000000000000, 0.000000000000000000, 1.000000000000000000 ) ) ;
#25 = PERSON_AND_ORGANIZATION_ROLE ( 'creator' ) ;
#26 = CARTESIAN_POINT ( 'NONE',  ( 0.000000000000000000, 0.000000000000000000, 405.0000000000000000 ) ) ;
#27 = ADVANCED_FACE ( 'NONE', ( #36 ), #96, .T. ) ;
#28 = PERSON_AND_ORGANIZATION ( #11, #151 ) ;
#29 = CARTESIAN_POINT ( 'NONE',  ( -6.000000000000000888, 0.000000000000000000, 5.000000000000000000 ) ) ;
#30 = DIRECTION ( 'NONE',  ( 1.000000000000000000, 0.000000000000000000, 0.000000000000000000 ) ) ;
#31 = VECTOR ( 'NONE', #135, 1000.000000000000000 ) ;
#32 = PRODUCT_DEFINITION ( 'NEZNÁMÝ', '', #157, #80 ) ;
#33 = LOCAL_TIME ( 19, 37, 0.000000000000000000, #152 ) ;
#34 = SECURITY_CLASSIFICATION ( '', '', #205 ) ;
#35 = AXIS2_PLACEMENT_3D ( 'NONE', #237, #216, #97 ) ;
#36 = FACE_OUTER_BOUND ( 'NONE', #254, .T. ) ;
#37 = ORIENTED_EDGE ( 'NONE', *, *, #178, .T. ) ;
#38 = DIRECTION ( 'NONE',  ( 0.000000000000000000, 0.000000000000000000, 1.000000000000000000 ) ) ;
#39 = LINE ( 'NONE', #119, #122 ) ;
#40 = DIRECTION ( 'NONE',  ( 0.000000000000000000, 0.000000000000000000, 1.000000000000000000 ) ) ;
#41 = ORIENTED_EDGE ( 'NONE', *, *, #110, .T. ) ;
#42 = EDGE_CURVE ( 'NONE', #144, #17, #39, .T. ) ;
#43 = PRODUCT_DEFINITION_SHAPE ( 'NONE', 'NONE',  #32 ) ;
#44 = COORDINATED_UNIVERSAL_TIME_OFFSET ( 1, 0, .AHEAD. ) ;
#45 = DATE_TIME_ROLE ( 'classification_date' ) ;
#46 = CARTESIAN_POINT ( 'NONE',  ( -6.000000000000000888, 0.000000000000000000, 5.000000000000000000 ) ) ;
#47 = COORDINATED_UNIVERSAL_TIME_OFFSET ( 1, 0, .AHEAD. ) ;
#48 = DIRECTION ( 'NONE',  ( -0.000000000000000000, -0.000000000000000000, -1.000000000000000000 ) ) ;
#49 = CIRCLE ( 'NONE', #114, 3.250000000000000444 ) ;
#50 = APPROVAL_PERSON_ORGANIZATION ( #240, #236, #166 ) ;
#51 = EDGE_LOOP ( 'NONE', ( #197, #62 ) ) ;
#52 = CARTESIAN_POINT ( 'NONE',  ( -3.250000000000000444, 0.000000000000000000, 5.000000000000000000 ) ) ;
#53 = DIRECTION ( 'NONE',  ( 1.000000000000000000, 0.000000000000000000, -0.000000000000000000 ) ) ;
#54 = EDGE_LOOP ( 'NONE', ( #199, #117 ) ) ;
#55 = CARTESIAN_POINT ( 'NONE',  ( 0.000000000000000000, 0.000000000000000000, 5.000000000000000000 ) ) ;
#56 = MANIFOLD_SOLID_BREP ( 'Pøidat vysunutím3', #185 ) ;
#57 = DIRECTION ( 'NONE',  ( 1.000000000000000000, 0.000000000000000000, 0.000000000000000000 ) ) ;
#58 = AXIS2_PLACEMENT_3D ( 'NONE', #220, #24, #57 ) ;
#59 = ORIENTED_EDGE ( 'NONE', *, *, #232, .F. ) ;
#60 = COORDINATED_UNIVERSAL_TIME_OFFSET ( 1, 0, .AHEAD. ) ;
#61 =( NAMED_UNIT ( * ) SI_UNIT ( $, .STERADIAN. ) SOLID_ANGLE_UNIT ( ) );
#62 = ORIENTED_EDGE ( 'NONE', *, *, #64, .F. ) ;
#63 = VECTOR ( 'NONE', #244, 1000.000000000000000 ) ;
#64 = EDGE_CURVE ( 'NONE', #165, #17, #95, .T. ) ;
#65 = DATE_AND_TIME ( #84, #87 ) ;
#66 = CARTESIAN_POINT ( 'NONE',  ( 0.000000000000000000, 0.000000000000000000, 0.000000000000000000 ) ) ;
#67 = DIRECTION ( 'NONE',  ( 0.000000000000000000, 0.000000000000000000, 1.000000000000000000 ) ) ;
#68 =( GEOMETRIC_REPRESENTATION_CONTEXT ( 3 ) GLOBAL_UNCERTAINTY_ASSIGNED_CONTEXT ( ( #231 ) ) GLOBAL_UNIT_ASSIGNED_CONTEXT ( ( #202, #186, #61 ) ) REPRESENTATION_CONTEXT ( 'NONE', 'WORKASPACE' ) );
#69 = CARTESIAN_POINT ( 'NONE',  ( 0.000000000000000000, 0.000000000000000000, 405.0000000000000000 ) ) ;
#70 = VECTOR ( 'NONE', #48, 1000.000000000000000 ) ;
#71 = ADVANCED_FACE ( 'NONE', ( #228 ), #130, .T. ) ;
#72 = ADVANCED_FACE ( 'NONE', ( #133 ), #207, .T. ) ;
#73 = ORIENTED_EDGE ( 'NONE', *, *, #42, .T. ) ;
#74 = ORIENTED_EDGE ( 'NONE', *, *, #178, .F. ) ;
#75 = CARTESIAN_POINT ( 'NONE',  ( 6.000000000000000888, 7.347880794884120722E-16, 5.000000000000000000 ) ) ;
#76 = ORIENTED_EDGE ( 'NONE', *, *, #252, .T. ) ;
#77 = CARTESIAN_POINT ( 'NONE',  ( 0.000000000000000000, 0.000000000000000000, 5.000000000000000000 ) ) ;
#78 = APPROVAL ( #239, 'NEURÈENÝ' ) ;
#79 = PERSON_AND_ORGANIZATION ( #11, #151 ) ;
#80 = DESIGN_CONTEXT ( 'detailed design', #132, 'design' ) ;
#81 = APPLICATION_PROTOCOL_DEFINITION ( 'international standard', 'config_control_design', 1994, #112 ) ;
#82 = ORIENTED_EDGE ( 'NONE', *, *, #177, .T. ) ;
#83 = APPROVAL_DATE_TIME ( #204, #134 ) ;
#84 = CALENDAR_DATE ( 2022, 7, 7 ) ;
#85 = CIRCLE ( 'NONE', #230, 6.000000000000000888 ) ;
#86 = CALENDAR_DATE ( 2022, 7, 7 ) ;
#87 = LOCAL_TIME ( 19, 37, 0.000000000000000000, #47 ) ;
#88 = EDGE_CURVE ( 'NONE', #183, #93, #171, .T. ) ;
#89 = CARTESIAN_POINT ( 'NONE',  ( 0.000000000000000000, 0.000000000000000000, 5.000000000000000000 ) ) ;
#90 = DIRECTION ( 'NONE',  ( 0.000000000000000000, 0.000000000000000000, 1.000000000000000000 ) ) ;
#91 = CC_DESIGN_SECURITY_CLASSIFICATION ( #34, ( #157 ) ) ;
#92 = CARTESIAN_POINT ( 'NONE',  ( 0.000000000000000000, 0.000000000000000000, 405.0000000000000000 ) ) ;
#93 = VERTEX_POINT ( 'NONE', #13 ) ;
#94 = APPROVAL_STATUS ( 'not_yet_approved' ) ;
#95 = CIRCLE ( 'NONE', #159, 3.250000000000000444 ) ;
#96 = CYLINDRICAL_SURFACE ( 'NONE', #12, 3.250000000000000444 ) ;
#97 = DIRECTION ( 'NONE',  ( 1.000000000000000000, 0.000000000000000000, 0.000000000000000000 ) ) ;
#98 = ORIENTED_EDGE ( 'NONE', *, *, #116, .T. ) ;
#99 = CALENDAR_DATE ( 2022, 7, 7 ) ;
#100 = AXIS2_PLACEMENT_3D ( 'NONE', #104, #192, #253 ) ;
#101 = APPROVAL_ROLE ( '' ) ;
#102 = CC_DESIGN_DATE_AND_TIME_ASSIGNMENT ( #65, #147, ( #32 ) ) ;
#103 = CALENDAR_DATE ( 2022, 7, 7 ) ;
#104 = CARTESIAN_POINT ( 'NONE',  ( 0.000000000000000000, 0.000000000000000000, 5.000000000000000000 ) ) ;
#105 = LINE ( 'NONE', #10, #63 ) ;
#106 = DATE_AND_TIME ( #193, #209 ) ;
#107 = DIRECTION ( 'NONE',  ( 1.000000000000000000, 0.000000000000000000, 0.000000000000000000 ) ) ;
#108 = CARTESIAN_POINT ( 'NONE',  ( 0.000000000000000000, 0.000000000000000000, 5.000000000000000000 ) ) ;
#109 = DIRECTION ( 'NONE',  ( 0.000000000000000000, 0.000000000000000000, 1.000000000000000000 ) ) ;
#110 = EDGE_CURVE ( 'NONE', #241, #93, #138, .T. ) ;
#111 = CC_DESIGN_APPROVAL ( #236, ( #32 ) ) ;
#112 = APPLICATION_CONTEXT ( 'configuration controlled 3d designs of mechanical parts and assemblies' ) ;
#113 = ADVANCED_BREP_SHAPE_REPRESENTATION ( '53d5', ( #56, #58 ), #68 ) ;
#114 = AXIS2_PLACEMENT_3D ( 'NONE', #154, #156, #208 ) ;
#115 = EDGE_LOOP ( 'NONE', ( #37, #76 ) ) ;
#116 = EDGE_CURVE ( 'NONE', #93, #241, #85, .T. ) ;
#117 = ORIENTED_EDGE ( 'NONE', *, *, #110, .F. ) ;
#118 = FACE_OUTER_BOUND ( 'NONE', #18, .T. ) ;
#119 = CARTESIAN_POINT ( 'NONE',  ( -3.250000000000000444, 0.000000000000000000, 405.0000000000000000 ) ) ;
#120 = DIRECTION ( 'NONE',  ( -1.000000000000000000, 0.000000000000000000, 0.000000000000000000 ) ) ;
#121 = MECHANICAL_CONTEXT ( 'NONE', #112, 'mechanical' ) ;
#122 = VECTOR ( 'NONE', #19, 1000.000000000000000 ) ;
#123 = ORIENTED_EDGE ( 'NONE', *, *, #211, .F. ) ;
#124 = SHAPE_DEFINITION_REPRESENTATION ( #43, #113 ) ;
#125 = PERSON_AND_ORGANIZATION_ROLE ( 'creator' ) ;
#126 = EDGE_CURVE ( 'NONE', #221, #241, #105, .T. ) ;
#127 = APPROVAL_PERSON_ORGANIZATION ( #148, #134, #101 ) ;
#128 = PERSON_AND_ORGANIZATION_ROLE ( 'design_supplier' ) ;
#129 = CYLINDRICAL_SURFACE ( 'NONE', #100, 6.000000000000000888 ) ;
#130 = CYLINDRICAL_SURFACE ( 'NONE', #246, 3.250000000000000444 ) ;
#131 = APPROVAL_ROLE ( '' ) ;
#132 = APPLICATION_CONTEXT ( 'configuration controlled 3d designs of mechanical parts and assemblies' ) ;
#133 = FACE_OUTER_BOUND ( 'NONE', #115, .T. ) ;
#134 = APPROVAL ( #189, 'NEURÈENÝ' ) ;
#135 = DIRECTION ( 'NONE',  ( -0.000000000000000000, -0.000000000000000000, -1.000000000000000000 ) ) ;
#136 = AXIS2_PLACEMENT_3D ( 'NONE', #89, #169, #150 ) ;
#137 = DIRECTION ( 'NONE',  ( 1.000000000000000000, 0.000000000000000000, 0.000000000000000000 ) ) ;
#138 = CIRCLE ( 'NONE', #174, 6.000000000000000888 ) ;
#139 = PRODUCT_RELATED_PRODUCT_CATEGORY ( 'detail', '', ( #191 ) ) ;
#140 = AXIS2_PLACEMENT_3D ( 'NONE', #55, #187, #255 ) ;
#141 = ORIENTED_EDGE ( 'NONE', *, *, #252, .F. ) ;
#142 = DIRECTION ( 'NONE',  ( -0.000000000000000000, -0.000000000000000000, -1.000000000000000000 ) ) ;
#143 = CARTESIAN_POINT ( 'NONE',  ( 0.000000000000000000, 0.000000000000000000, 5.000000000000000000 ) ) ;
#144 = VERTEX_POINT ( 'NONE', #210 ) ;
#145 = FACE_OUTER_BOUND ( 'NONE', #54, .T. ) ;
#146 = APPROVAL_PERSON_ORGANIZATION ( #206, #78, #131 ) ;
#147 = DATE_TIME_ROLE ( 'creation_date' ) ;
#148 = PERSON_AND_ORGANIZATION ( #11, #151 ) ;
#149 = AXIS2_PLACEMENT_3D ( 'NONE', #198, #38, #235 ) ;
#150 = DIRECTION ( 'NONE',  ( 1.000000000000000000, 0.000000000000000000, 0.000000000000000000 ) ) ;
#151 = ORGANIZATION ( 'NEURÈENÝ', 'NEURÈENÝ', '' ) ;
#152 = COORDINATED_UNIVERSAL_TIME_OFFSET ( 1, 0, .AHEAD. ) ;
#153 = CC_DESIGN_PERSON_AND_ORGANIZATION_ASSIGNMENT ( #188, #4, ( #191 ) ) ;
#154 = CARTESIAN_POINT ( 'NONE',  ( 0.000000000000000000, 0.000000000000000000, 5.000000000000000000 ) ) ;
#155 = CARTESIAN_POINT ( 'NONE',  ( 3.250000000000000444, 3.980102097228898231E-16, 5.000000000000000000 ) ) ;
#156 = DIRECTION ( 'NONE',  ( 0.000000000000000000, 0.000000000000000000, 1.000000000000000000 ) ) ;
#157 = PRODUCT_DEFINITION_FORMATION_WITH_SPECIFIED_SOURCE ( 'LIBOVOLNÝ', '', #191, .NOT_KNOWN. ) ;
#158 = CC_DESIGN_PERSON_AND_ORGANIZATION_ASSIGNMENT ( #9, #125, ( #157 ) ) ;
#159 = AXIS2_PLACEMENT_3D ( 'NONE', #108, #226, #137 ) ;
#160 = EDGE_LOOP ( 'NONE', ( #123, #217, #41, #161 ) ) ;
#161 = ORIENTED_EDGE ( 'NONE', *, *, #88, .F. ) ;
#162 = PLANE ( 'NONE',  #149 ) ;
#163 = ORIENTED_EDGE ( 'NONE', *, *, #42, .F. ) ;
#164 = FACE_OUTER_BOUND ( 'NONE', #160, .T. ) ;
#165 = VERTEX_POINT ( 'NONE', #155 ) ;
#166 = APPROVAL_ROLE ( '' ) ;
#167 = APPLICATION_PROTOCOL_DEFINITION ( 'international standard', 'config_control_design', 1994, #132 ) ;
#168 = PERSON_AND_ORGANIZATION ( #11, #151 ) ;
#169 = DIRECTION ( 'NONE',  ( 0.000000000000000000, 0.000000000000000000, 1.000000000000000000 ) ) ;
#170 = EDGE_CURVE ( 'NONE', #1, #165, #194, .T. ) ;
#171 = LINE ( 'NONE', #29, #70 ) ;
#172 = CC_DESIGN_APPROVAL ( #134, ( #157 ) ) ;
#173 = DIRECTION ( 'NONE',  ( 1.000000000000000000, 0.000000000000000000, -0.000000000000000000 ) ) ;
#174 = AXIS2_PLACEMENT_3D ( 'NONE', #66, #109, #107 ) ;
#175 = DIRECTION ( 'NONE',  ( 1.000000000000000000, 0.000000000000000000, 0.000000000000000000 ) ) ;
#176 = DIRECTION ( 'NONE',  ( -1.000000000000000000, 0.000000000000000000, 0.000000000000000000 ) ) ;
#177 = EDGE_CURVE ( 'NONE', #17, #165, #49, .T. ) ;
#178 = EDGE_CURVE ( 'NONE', #144, #1, #8, .T. ) ;
#179 = CIRCLE ( 'NONE', #136, 6.000000000000000888 ) ;
#180 = CC_DESIGN_PERSON_AND_ORGANIZATION_ASSIGNMENT ( #79, #128, ( #157 ) ) ;
#181 = ORIENTED_EDGE ( 'NONE', *, *, #170, .T. ) ;
#182 = AXIS2_PLACEMENT_3D ( 'NONE', #77, #40, #53 ) ;
#183 = VERTEX_POINT ( 'NONE', #46 ) ;
#184 = FACE_BOUND ( 'NONE', #51, .T. ) ;
#185 = CLOSED_SHELL ( 'NONE', ( #71, #245, #213, #243, #224, #27, #72 ) ) ;
#186 =( NAMED_UNIT ( * ) PLANE_ANGLE_UNIT ( ) SI_UNIT ( $, .RADIAN. ) );
#187 = DIRECTION ( 'NONE',  ( 0.000000000000000000, 0.000000000000000000, 1.000000000000000000 ) ) ;
#188 = PERSON_AND_ORGANIZATION ( #11, #151 ) ;
#189 = APPROVAL_STATUS ( 'not_yet_approved' ) ;
#190 = LOCAL_TIME ( 19, 37, 0.000000000000000000, #44 ) ;
#191 = PRODUCT ( '53d5', '53d5', '', ( #121 ) ) ;
#192 = DIRECTION ( 'NONE',  ( -0.000000000000000000, -0.000000000000000000, -1.000000000000000000 ) ) ;
#193 = CALENDAR_DATE ( 2022, 7, 7 ) ;
#194 = LINE ( 'NONE', #14, #31 ) ;
#195 = CC_DESIGN_PERSON_AND_ORGANIZATION_ASSIGNMENT ( #28, #25, ( #32 ) ) ;
#196 = ORIENTED_EDGE ( 'NONE', *, *, #88, .T. ) ;
#197 = ORIENTED_EDGE ( 'NONE', *, *, #177, .F. ) ;
#198 = CARTESIAN_POINT ( 'NONE',  ( 0.000000000000000000, 0.000000000000000000, 0.000000000000000000 ) ) ;
#199 = ORIENTED_EDGE ( 'NONE', *, *, #116, .F. ) ;
#200 = CYLINDRICAL_SURFACE ( 'NONE', #212, 6.000000000000000888 ) ;
#201 = AXIS2_PLACEMENT_3D ( 'NONE', #69, #225, #30 ) ;
#202 =( LENGTH_UNIT ( ) NAMED_UNIT ( * ) SI_UNIT ( .MILLI., .METRE. ) );
#203 = ORIENTED_EDGE ( 'NONE', *, *, #126, .F. ) ;
#204 = DATE_AND_TIME ( #86, #190 ) ;
#205 = SECURITY_CLASSIFICATION_LEVEL ( 'unclassified' ) ;
#206 = PERSON_AND_ORGANIZATION ( #11, #151 ) ;
#207 = PLANE ( 'NONE',  #20 ) ;
#208 = DIRECTION ( 'NONE',  ( 1.000000000000000000, 0.000000000000000000, 0.000000000000000000 ) ) ;
#209 = LOCAL_TIME ( 19, 37, 0.000000000000000000, #60 ) ;
#210 = CARTESIAN_POINT ( 'NONE',  ( -3.250000000000000444, 0.000000000000000000, 405.0000000000000000 ) ) ;
#211 = EDGE_CURVE ( 'NONE', #221, #183, #179, .T. ) ;
#212 = AXIS2_PLACEMENT_3D ( 'NONE', #143, #21, #120 ) ;
#213 = ADVANCED_FACE ( 'NONE', ( #223 ), #129, .T. ) ;
#214 = CARTESIAN_POINT ( 'NONE',  ( 3.250000000000000444, 3.980102097228898231E-16, 405.0000000000000000 ) ) ;
#215 = DIRECTION ( 'NONE',  ( -1.000000000000000000, 0.000000000000000000, 0.000000000000000000 ) ) ;
#216 = DIRECTION ( 'NONE',  ( 0.000000000000000000, 0.000000000000000000, 1.000000000000000000 ) ) ;
#217 = ORIENTED_EDGE ( 'NONE', *, *, #126, .T. ) ;
#218 = CIRCLE ( 'NONE', #35, 3.250000000000000444 ) ;
#219 = CARTESIAN_POINT ( 'NONE',  ( 6.000000000000000888, 7.347880794884120722E-16, 0.000000000000000000 ) ) ;
#220 = CARTESIAN_POINT ( 'NONE',  ( 0.000000000000000000, 0.000000000000000000, 0.000000000000000000 ) ) ;
#221 = VERTEX_POINT ( 'NONE', #75 ) ;
#222 = COORDINATED_UNIVERSAL_TIME_OFFSET ( 1, 0, .AHEAD. ) ;
#223 = FACE_OUTER_BOUND ( 'NONE', #234, .T. ) ;
#224 = ADVANCED_FACE ( 'NONE', ( #145 ), #162, .F. ) ;
#225 = DIRECTION ( 'NONE',  ( 0.000000000000000000, 0.000000000000000000, 1.000000000000000000 ) ) ;
#226 = DIRECTION ( 'NONE',  ( 0.000000000000000000, 0.000000000000000000, 1.000000000000000000 ) ) ;
#227 = CARTESIAN_POINT ( 'NONE',  ( 0.000000000000000000, 0.000000000000000000, 405.0000000000000000 ) ) ;
#228 = FACE_OUTER_BOUND ( 'NONE', #5, .T. ) ;
#229 = LOCAL_TIME ( 19, 37, 0.000000000000000000, #222 ) ;
#230 = AXIS2_PLACEMENT_3D ( 'NONE', #249, #67, #175 ) ;
#231 = UNCERTAINTY_MEASURE_WITH_UNIT (LENGTH_MEASURE( 1.000000000000000082E-05 ), #202, 'distance_accuracy_value', 'NONE');
#232 = EDGE_CURVE ( 'NONE', #183, #221, #16, .T. ) ;
#233 = ORIENTED_EDGE ( 'NONE', *, *, #211, .T. ) ;
#234 = EDGE_LOOP ( 'NONE', ( #203, #59, #196, #98 ) ) ;
#235 = DIRECTION ( 'NONE',  ( 1.000000000000000000, 0.000000000000000000, -0.000000000000000000 ) ) ;
#236 = APPROVAL ( #94, 'NEURÈENÝ' ) ;
#237 = CARTESIAN_POINT ( 'NONE',  ( 0.000000000000000000, 0.000000000000000000, 405.0000000000000000 ) ) ;
#238 = ORIENTED_EDGE ( 'NONE', *, *, #170, .F. ) ;
#239 = APPROVAL_STATUS ( 'not_yet_approved' ) ;
#240 = PERSON_AND_ORGANIZATION ( #11, #151 ) ;
#241 = VERTEX_POINT ( 'NONE', #219 ) ;
#242 = APPROVAL_DATE_TIME ( #106, #78 ) ;
#243 = ADVANCED_FACE ( 'NONE', ( #184, #118 ), #3, .T. ) ;
#244 = DIRECTION ( 'NONE',  ( -0.000000000000000000, -0.000000000000000000, -1.000000000000000000 ) ) ;
#245 = ADVANCED_FACE ( 'NONE', ( #164 ), #200, .T. ) ;
#246 = AXIS2_PLACEMENT_3D ( 'NONE', #227, #247, #176 ) ;
#247 = DIRECTION ( 'NONE',  ( -0.000000000000000000, -0.000000000000000000, -1.000000000000000000 ) ) ;
#248 = CC_DESIGN_APPROVAL ( #78, ( #34 ) ) ;
#249 = CARTESIAN_POINT ( 'NONE',  ( 0.000000000000000000, 0.000000000000000000, 0.000000000000000000 ) ) ;
#250 = CC_DESIGN_DATE_AND_TIME_ASSIGNMENT ( #6, #45, ( #34 ) ) ;
#251 = ORIENTED_EDGE ( 'NONE', *, *, #64, .T. ) ;
#252 = EDGE_CURVE ( 'NONE', #1, #144, #218, .T. ) ;
#253 = DIRECTION ( 'NONE',  ( -1.000000000000000000, 0.000000000000000000, 0.000000000000000000 ) ) ;
#254 = EDGE_LOOP ( 'NONE', ( #238, #74, #73, #82 ) ) ;
#255 = DIRECTION ( 'NONE',  ( 1.000000000000000000, 0.000000000000000000, 0.000000000000000000 ) ) ;
ENDSEC;
END-ISO-10303-21;
