ISO-10303-21;
HEADER;
FILE_DESCRIPTION (( 'STEP AP203' ),
    '1' );
FILE_NAME ('c80e.STEP',
    '2022-07-07T17:19:46',
    ( '' ),
    ( '' ),
    'SwSTEP 2.0',
    'SolidWorks 2019',
    '' );
FILE_SCHEMA (( 'CONFIG_CONTROL_DESIGN' ));
ENDSEC;

DATA;
#1 = CARTESIAN_POINT ( 'NONE',  ( 0.000000000000000000, 0.000000000000000000, 257.0000000000000000 ) ) ;
#2 = CIRCLE ( 'NONE', #30, 6.000000000000000888 ) ;
#3 = ORIENTED_EDGE ( 'NONE', *, *, #152, .T. ) ;
#4 = ORGANIZATION ( 'NEURÈENÝ', 'NEURÈENÝ', '' ) ;
#5 = DIRECTION ( 'NONE',  ( -1.000000000000000000, 0.000000000000000000, 0.000000000000000000 ) ) ;
#6 = CYLINDRICAL_SURFACE ( 'NONE', #162, 9.000000000000000000 ) ;
#7 = AXIS2_PLACEMENT_3D ( 'NONE', #199, #20, #5 ) ;
#8 = DIRECTION ( 'NONE',  ( 0.000000000000000000, 0.000000000000000000, 1.000000000000000000 ) ) ;
#9 = ADVANCED_FACE ( 'NONE', ( #131 ), #176, .T. ) ;
#10 = FACE_OUTER_BOUND ( 'NONE', #241, .T. ) ;
#11 = PERSON_AND_ORGANIZATION_ROLE ( 'creator' ) ;
#12 = APPROVAL_DATE_TIME ( #142, #203 ) ;
#13 = CARTESIAN_POINT ( 'NONE',  ( 9.000000000000000000, 1.102182119232617714E-15, 0.000000000000000000 ) ) ;
#14 = EDGE_CURVE ( 'NONE', #90, #219, #129, .T. ) ;
#15 = ORIENTED_EDGE ( 'NONE', *, *, #197, .T. ) ;
#16 = ORIENTED_EDGE ( 'NONE', *, *, #115, .T. ) ;
#17 = ORIENTED_EDGE ( 'NONE', *, *, #200, .F. ) ;
#18 = ORIENTED_EDGE ( 'NONE', *, *, #191, .T. ) ;
#19 = PRODUCT_DEFINITION ( 'NEZNÁMÝ', '', #182, #239 ) ;
#20 = DIRECTION ( 'NONE',  ( -0.000000000000000000, -0.000000000000000000, -1.000000000000000000 ) ) ;
#21 = VECTOR ( 'NONE', #33, 1000.000000000000000 ) ;
#22 = CARTESIAN_POINT ( 'NONE',  ( 0.000000000000000000, 0.000000000000000000, 0.000000000000000000 ) ) ;
#23 = EDGE_CURVE ( 'NONE', #194, #218, #170, .T. ) ;
#24 = DIRECTION ( 'NONE',  ( 1.000000000000000000, 0.000000000000000000, 0.000000000000000000 ) ) ;
#25 = DIRECTION ( 'NONE',  ( 1.000000000000000000, 0.000000000000000000, 0.000000000000000000 ) ) ;
#26 = AXIS2_PLACEMENT_3D ( 'NONE', #248, #132, #24 ) ;
#27 = CARTESIAN_POINT ( 'NONE',  ( 6.000000000000000888, 7.347880794884120722E-16, 7.000000000000000000 ) ) ;
#28 = APPROVAL_STATUS ( 'not_yet_approved' ) ;
#29 = AXIS2_PLACEMENT_3D ( 'NONE', #228, #227, #164 ) ;
#30 = AXIS2_PLACEMENT_3D ( 'NONE', #99, #159, #186 ) ;
#31 = PERSON ( 'NEURÈENÝ', 'NEURÈENÝ', 'NEURÈENÝ', ('NEURÈENÝ'), ('NEURÈENÝ'), ('NEURÈENÝ') ) ;
#32 = APPROVAL_PERSON_ORGANIZATION ( #122, #203, #104 ) ;
#33 = DIRECTION ( 'NONE',  ( -0.000000000000000000, -0.000000000000000000, -1.000000000000000000 ) ) ;
#34 = ORIENTED_EDGE ( 'NONE', *, *, #61, .F. ) ;
#35 = DIRECTION ( 'NONE',  ( 0.000000000000000000, 0.000000000000000000, 1.000000000000000000 ) ) ;
#36 = VERTEX_POINT ( 'NONE', #223 ) ;
#37 = CARTESIAN_POINT ( 'NONE',  ( 0.000000000000000000, 0.000000000000000000, 7.000000000000000000 ) ) ;
#38 = DIRECTION ( 'NONE',  ( 0.000000000000000000, 0.000000000000000000, 1.000000000000000000 ) ) ;
#39 = EDGE_CURVE ( 'NONE', #157, #90, #146, .T. ) ;
#40 = CARTESIAN_POINT ( 'NONE',  ( 0.000000000000000000, 0.000000000000000000, 0.000000000000000000 ) ) ;
#41 = CYLINDRICAL_SURFACE ( 'NONE', #230, 6.000000000000000888 ) ;
#42 = SECURITY_CLASSIFICATION ( '', '', #67 ) ;
#43 = PERSON_AND_ORGANIZATION ( #31, #4 ) ;
#44 = PERSON_AND_ORGANIZATION ( #31, #4 ) ;
#45 = FACE_OUTER_BOUND ( 'NONE', #240, .T. ) ;
#46 = PERSON_AND_ORGANIZATION ( #31, #4 ) ;
#47 = APPLICATION_PROTOCOL_DEFINITION ( 'international standard', 'config_control_design', 1994, #77 ) ;
#48 = CIRCLE ( 'NONE', #111, 9.000000000000000000 ) ;
#49 =( NAMED_UNIT ( * ) SI_UNIT ( $, .STERADIAN. ) SOLID_ANGLE_UNIT ( ) );
#50 = APPROVAL_DATE_TIME ( #53, #101 ) ;
#51 = CIRCLE ( 'NONE', #26, 6.000000000000000888 ) ;
#52 = APPLICATION_PROTOCOL_DEFINITION ( 'international standard', 'config_control_design', 1994, #149 ) ;
#53 = DATE_AND_TIME ( #210, #205 ) ;
#54 = ORIENTED_EDGE ( 'NONE', *, *, #191, .F. ) ;
#55 = PRODUCT ( 'c80e', 'c80e', '', ( #106 ) ) ;
#56 = ORIENTED_EDGE ( 'NONE', *, *, #100, .T. ) ;
#57 = ORIENTED_EDGE ( 'NONE', *, *, #14, .F. ) ;
#58 = ORIENTED_EDGE ( 'NONE', *, *, #152, .F. ) ;
#59 = CYLINDRICAL_SURFACE ( 'NONE', #7, 6.000000000000000888 ) ;
#60 = FACE_OUTER_BOUND ( 'NONE', #153, .T. ) ;
#61 = EDGE_CURVE ( 'NONE', #218, #194, #51, .T. ) ;
#62 = FACE_OUTER_BOUND ( 'NONE', #154, .T. ) ;
#63 = DIRECTION ( 'NONE',  ( 1.000000000000000000, 0.000000000000000000, 0.000000000000000000 ) ) ;
#64 = ADVANCED_FACE ( 'NONE', ( #62 ), #80, .T. ) ;
#65 = LINE ( 'NONE', #245, #137 ) ;
#66 = CARTESIAN_POINT ( 'NONE',  ( -9.000000000000000000, 0.000000000000000000, 7.000000000000000000 ) ) ;
#67 = SECURITY_CLASSIFICATION_LEVEL ( 'unclassified' ) ;
#68 =( LENGTH_UNIT ( ) NAMED_UNIT ( * ) SI_UNIT ( .MILLI., .METRE. ) );
#69 = PERSON_AND_ORGANIZATION ( #31, #4 ) ;
#70 = CALENDAR_DATE ( 2022, 7, 7 ) ;
#71 = ORIENTED_EDGE ( 'NONE', *, *, #39, .F. ) ;
#72 = ORIENTED_EDGE ( 'NONE', *, *, #23, .F. ) ;
#73 = ORIENTED_EDGE ( 'NONE', *, *, #181, .T. ) ;
#74 = EDGE_CURVE ( 'NONE', #238, #36, #207, .T. ) ;
#75 = CC_DESIGN_PERSON_AND_ORGANIZATION_ASSIGNMENT ( #46, #138, ( #182 ) ) ;
#76 = ORIENTED_EDGE ( 'NONE', *, *, #200, .T. ) ;
#77 = APPLICATION_CONTEXT ( 'configuration controlled 3d designs of mechanical parts and assemblies' ) ;
#78 = DIRECTION ( 'NONE',  ( -0.000000000000000000, -0.000000000000000000, -1.000000000000000000 ) ) ;
#79 = PRODUCT_DEFINITION_SHAPE ( 'NONE', 'NONE',  #19 ) ;
#80 = CYLINDRICAL_SURFACE ( 'NONE', #174, 9.000000000000000000 ) ;
#81 = LOCAL_TIME ( 19, 19, 46.00000000000000000, #85 ) ;
#82 = CARTESIAN_POINT ( 'NONE',  ( -9.000000000000000000, 0.000000000000000000, 0.000000000000000000 ) ) ;
#83 = DIRECTION ( 'NONE',  ( -0.000000000000000000, -0.000000000000000000, -1.000000000000000000 ) ) ;
#84 = PLANE ( 'NONE',  #214 ) ;
#85 = COORDINATED_UNIVERSAL_TIME_OFFSET ( 1, 0, .AHEAD. ) ;
#86 = ADVANCED_FACE ( 'NONE', ( #135 ), #41, .T. ) ;
#87 = CALENDAR_DATE ( 2022, 7, 7 ) ;
#88 = DIRECTION ( 'NONE',  ( 1.000000000000000000, 0.000000000000000000, -0.000000000000000000 ) ) ;
#89 = DIRECTION ( 'NONE',  ( -0.000000000000000000, -0.000000000000000000, -1.000000000000000000 ) ) ;
#90 = VERTEX_POINT ( 'NONE', #184 ) ;
#91 = AXIS2_PLACEMENT_3D ( 'NONE', #255, #233, #192 ) ;
#92 = EDGE_LOOP ( 'NONE', ( #34, #72 ) ) ;
#93 = ORIENTED_EDGE ( 'NONE', *, *, #115, .F. ) ;
#94 = ORIENTED_EDGE ( 'NONE', *, *, #100, .F. ) ;
#95 = CARTESIAN_POINT ( 'NONE',  ( 0.000000000000000000, 0.000000000000000000, 7.000000000000000000 ) ) ;
#96 = CARTESIAN_POINT ( 'NONE',  ( 0.000000000000000000, 0.000000000000000000, 7.000000000000000000 ) ) ;
#97 = APPROVAL_PERSON_ORGANIZATION ( #254, #101, #169 ) ;
#98 = DIRECTION ( 'NONE',  ( -1.000000000000000000, 0.000000000000000000, 0.000000000000000000 ) ) ;
#99 = CARTESIAN_POINT ( 'NONE',  ( 0.000000000000000000, 0.000000000000000000, 257.0000000000000000 ) ) ;
#100 = EDGE_CURVE ( 'NONE', #219, #178, #141, .T. ) ;
#101 = APPROVAL ( #236, 'NEURÈENÝ' ) ;
#102 = DIRECTION ( 'NONE',  ( 0.000000000000000000, 0.000000000000000000, 1.000000000000000000 ) ) ;
#103 = APPROVAL_DATE_TIME ( #121, #116 ) ;
#104 = APPROVAL_ROLE ( '' ) ;
#105 = AXIS2_PLACEMENT_3D ( 'NONE', #37, #38, #63 ) ;
#106 = MECHANICAL_CONTEXT ( 'NONE', #77, 'mechanical' ) ;
#107 =( GEOMETRIC_REPRESENTATION_CONTEXT ( 3 ) GLOBAL_UNCERTAINTY_ASSIGNED_CONTEXT ( ( #167 ) ) GLOBAL_UNIT_ASSIGNED_CONTEXT ( ( #68, #168, #49 ) ) REPRESENTATION_CONTEXT ( 'NONE', 'WORKASPACE' ) );
#108 = ORIENTED_EDGE ( 'NONE', *, *, #181, .F. ) ;
#109 = ORIENTED_EDGE ( 'NONE', *, *, #61, .T. ) ;
#110 = ORIENTED_EDGE ( 'NONE', *, *, #14, .T. ) ;
#111 = AXIS2_PLACEMENT_3D ( 'NONE', #163, #247, #134 ) ;
#112 = DIRECTION ( 'NONE',  ( -0.000000000000000000, -0.000000000000000000, -1.000000000000000000 ) ) ;
#113 = CARTESIAN_POINT ( 'NONE',  ( 0.000000000000000000, 0.000000000000000000, 7.000000000000000000 ) ) ;
#114 = DIRECTION ( 'NONE',  ( 0.000000000000000000, 0.000000000000000000, 1.000000000000000000 ) ) ;
#115 = EDGE_CURVE ( 'NONE', #36, #238, #2, .T. ) ;
#116 = APPROVAL ( #28, 'NEURÈENÝ' ) ;
#117 = CARTESIAN_POINT ( 'NONE',  ( 0.000000000000000000, 0.000000000000000000, 257.0000000000000000 ) ) ;
#118 = PLANE ( 'NONE',  #144 ) ;
#119 = PERSON_AND_ORGANIZATION ( #31, #4 ) ;
#120 = CARTESIAN_POINT ( 'NONE',  ( 6.000000000000000888, 7.347880794884120722E-16, 257.0000000000000000 ) ) ;
#121 = DATE_AND_TIME ( #70, #196 ) ;
#122 = PERSON_AND_ORGANIZATION ( #31, #4 ) ;
#123 = SHAPE_DEFINITION_REPRESENTATION ( #79, #130 ) ;
#124 = CC_DESIGN_APPROVAL ( #203, ( #19 ) ) ;
#125 = AXIS2_PLACEMENT_3D ( 'NONE', #1, #35, #195 ) ;
#126 = EDGE_LOOP ( 'NONE', ( #237, #16 ) ) ;
#127 = ORIENTED_EDGE ( 'NONE', *, *, #23, .T. ) ;
#128 = CC_DESIGN_APPROVAL ( #101, ( #42 ) ) ;
#129 = LINE ( 'NONE', #217, #21 ) ;
#130 = ADVANCED_BREP_SHAPE_REPRESENTATION ( 'c80e', ( #221, #91 ), #107 ) ;
#131 = FACE_OUTER_BOUND ( 'NONE', #126, .T. ) ;
#132 = DIRECTION ( 'NONE',  ( 0.000000000000000000, 0.000000000000000000, 1.000000000000000000 ) ) ;
#133 = DIRECTION ( 'NONE',  ( -0.000000000000000000, -0.000000000000000000, -1.000000000000000000 ) ) ;
#134 = DIRECTION ( 'NONE',  ( 1.000000000000000000, 0.000000000000000000, 0.000000000000000000 ) ) ;
#135 = FACE_OUTER_BOUND ( 'NONE', #222, .T. ) ;
#136 = CC_DESIGN_PERSON_AND_ORGANIZATION_ASSIGNMENT ( #43, #11, ( #19 ) ) ;
#137 = VECTOR ( 'NONE', #78, 1000.000000000000000 ) ;
#138 = PERSON_AND_ORGANIZATION_ROLE ( 'creator' ) ;
#139 = FACE_BOUND ( 'NONE', #92, .T. ) ;
#140 = COORDINATED_UNIVERSAL_TIME_OFFSET ( 1, 0, .AHEAD. ) ;
#141 = CIRCLE ( 'NONE', #253, 9.000000000000000000 ) ;
#142 = DATE_AND_TIME ( #251, #216 ) ;
#143 = COORDINATED_UNIVERSAL_TIME_OFFSET ( 1, 0, .AHEAD. ) ;
#144 = AXIS2_PLACEMENT_3D ( 'NONE', #209, #102, #88 ) ;
#145 = CALENDAR_DATE ( 2022, 7, 7 ) ;
#146 = CIRCLE ( 'NONE', #105, 9.000000000000000000 ) ;
#147 = ADVANCED_FACE ( 'NONE', ( #10 ), #84, .F. ) ;
#148 = CC_DESIGN_PERSON_AND_ORGANIZATION_ASSIGNMENT ( #119, #172, ( #42 ) ) ;
#149 = APPLICATION_CONTEXT ( 'configuration controlled 3d designs of mechanical parts and assemblies' ) ;
#150 = CC_DESIGN_SECURITY_CLASSIFICATION ( #42, ( #182 ) ) ;
#151 = EDGE_LOOP ( 'NONE', ( #180, #179, #3, #109 ) ) ;
#152 = EDGE_CURVE ( 'NONE', #238, #218, #65, .T. ) ;
#153 = EDGE_LOOP ( 'NONE', ( #57, #71, #76, #18 ) ) ;
#154 = EDGE_LOOP ( 'NONE', ( #108, #110, #56, #17 ) ) ;
#155 = CIRCLE ( 'NONE', #242, 9.000000000000000000 ) ;
#156 = ADVANCED_FACE ( 'NONE', ( #244 ), #59, .T. ) ;
#157 = VERTEX_POINT ( 'NONE', #160 ) ;
#158 = PRODUCT_RELATED_PRODUCT_CATEGORY ( 'detail', '', ( #55 ) ) ;
#159 = DIRECTION ( 'NONE',  ( 0.000000000000000000, 0.000000000000000000, 1.000000000000000000 ) ) ;
#160 = CARTESIAN_POINT ( 'NONE',  ( -9.000000000000000000, 0.000000000000000000, 7.000000000000000000 ) ) ;
#161 = CC_DESIGN_APPROVAL ( #116, ( #182 ) ) ;
#162 = AXIS2_PLACEMENT_3D ( 'NONE', #96, #133, #225 ) ;
#163 = CARTESIAN_POINT ( 'NONE',  ( 0.000000000000000000, 0.000000000000000000, 7.000000000000000000 ) ) ;
#164 = DIRECTION ( 'NONE',  ( 1.000000000000000000, 0.000000000000000000, 0.000000000000000000 ) ) ;
#165 = DIRECTION ( 'NONE',  ( 0.000000000000000000, 0.000000000000000000, 1.000000000000000000 ) ) ;
#166 = DATE_AND_TIME ( #145, #81 ) ;
#167 = UNCERTAINTY_MEASURE_WITH_UNIT (LENGTH_MEASURE( 1.000000000000000082E-05 ), #68, 'distance_accuracy_value', 'NONE');
#168 =( NAMED_UNIT ( * ) PLANE_ANGLE_UNIT ( ) SI_UNIT ( $, .RADIAN. ) );
#169 = APPROVAL_ROLE ( '' ) ;
#170 = CIRCLE ( 'NONE', #226, 6.000000000000000888 ) ;
#171 = DATE_AND_TIME ( #87, #211 ) ;
#172 = PERSON_AND_ORGANIZATION_ROLE ( 'classification_officer' ) ;
#173 = LINE ( 'NONE', #66, #177 ) ;
#174 = AXIS2_PLACEMENT_3D ( 'NONE', #95, #83, #185 ) ;
#175 = ADVANCED_FACE ( 'NONE', ( #60 ), #6, .T. ) ;
#176 = PLANE ( 'NONE',  #125 ) ;
#177 = VECTOR ( 'NONE', #208, 1000.000000000000000 ) ;
#178 = VERTEX_POINT ( 'NONE', #82 ) ;
#179 = ORIENTED_EDGE ( 'NONE', *, *, #74, .F. ) ;
#180 = ORIENTED_EDGE ( 'NONE', *, *, #197, .F. ) ;
#181 = EDGE_CURVE ( 'NONE', #90, #157, #48, .T. ) ;
#182 = PRODUCT_DEFINITION_FORMATION_WITH_SPECIFIED_SOURCE ( 'LIBOVOLNÝ', '', #55, .NOT_KNOWN. ) ;
#183 = DIRECTION ( 'NONE',  ( 1.000000000000000000, 0.000000000000000000, 0.000000000000000000 ) ) ;
#184 = CARTESIAN_POINT ( 'NONE',  ( 9.000000000000000000, 1.102182119232617714E-15, 7.000000000000000000 ) ) ;
#185 = DIRECTION ( 'NONE',  ( -1.000000000000000000, 0.000000000000000000, 0.000000000000000000 ) ) ;
#186 = DIRECTION ( 'NONE',  ( 1.000000000000000000, 0.000000000000000000, 0.000000000000000000 ) ) ;
#187 = COORDINATED_UNIVERSAL_TIME_OFFSET ( 1, 0, .AHEAD. ) ;
#188 = APPROVAL_PERSON_ORGANIZATION ( #44, #116, #232 ) ;
#189 = PERSON_AND_ORGANIZATION ( #31, #4 ) ;
#190 = COORDINATED_UNIVERSAL_TIME_OFFSET ( 1, 0, .AHEAD. ) ;
#191 = EDGE_CURVE ( 'NONE', #178, #219, #155, .T. ) ;
#192 = DIRECTION ( 'NONE',  ( 1.000000000000000000, 0.000000000000000000, 0.000000000000000000 ) ) ;
#193 = CC_DESIGN_PERSON_AND_ORGANIZATION_ASSIGNMENT ( #69, #235, ( #55 ) ) ;
#194 = VERTEX_POINT ( 'NONE', #27 ) ;
#195 = DIRECTION ( 'NONE',  ( 1.000000000000000000, 0.000000000000000000, -0.000000000000000000 ) ) ;
#196 = LOCAL_TIME ( 19, 19, 46.00000000000000000, #143 ) ;
#197 = EDGE_CURVE ( 'NONE', #36, #194, #231, .T. ) ;
#198 = CC_DESIGN_PERSON_AND_ORGANIZATION_ASSIGNMENT ( #189, #212, ( #182 ) ) ;
#199 = CARTESIAN_POINT ( 'NONE',  ( 0.000000000000000000, 0.000000000000000000, 257.0000000000000000 ) ) ;
#200 = EDGE_CURVE ( 'NONE', #157, #178, #173, .T. ) ;
#201 = ADVANCED_FACE ( 'NONE', ( #139, #45 ), #118, .T. ) ;
#202 = DIRECTION ( 'NONE',  ( 1.000000000000000000, 0.000000000000000000, -0.000000000000000000 ) ) ;
#203 = APPROVAL ( #215, 'NEURÈENÝ' ) ;
#204 = DIRECTION ( 'NONE',  ( 1.000000000000000000, 0.000000000000000000, 0.000000000000000000 ) ) ;
#205 = LOCAL_TIME ( 19, 19, 46.00000000000000000, #140 ) ;
#206 = DIRECTION ( 'NONE',  ( 0.000000000000000000, 0.000000000000000000, 1.000000000000000000 ) ) ;
#207 = CIRCLE ( 'NONE', #29, 6.000000000000000888 ) ;
#208 = DIRECTION ( 'NONE',  ( -0.000000000000000000, -0.000000000000000000, -1.000000000000000000 ) ) ;
#209 = CARTESIAN_POINT ( 'NONE',  ( 0.000000000000000000, 0.000000000000000000, 7.000000000000000000 ) ) ;
#210 = CALENDAR_DATE ( 2022, 7, 7 ) ;
#211 = LOCAL_TIME ( 19, 19, 46.00000000000000000, #187 ) ;
#212 = PERSON_AND_ORGANIZATION_ROLE ( 'design_supplier' ) ;
#213 = CARTESIAN_POINT ( 'NONE',  ( -6.000000000000000888, 0.000000000000000000, 7.000000000000000000 ) ) ;
#214 = AXIS2_PLACEMENT_3D ( 'NONE', #249, #165, #202 ) ;
#215 = APPROVAL_STATUS ( 'not_yet_approved' ) ;
#216 = LOCAL_TIME ( 19, 19, 46.00000000000000000, #190 ) ;
#217 = CARTESIAN_POINT ( 'NONE',  ( 9.000000000000000000, 1.102182119232617714E-15, 7.000000000000000000 ) ) ;
#218 = VERTEX_POINT ( 'NONE', #213 ) ;
#219 = VERTEX_POINT ( 'NONE', #13 ) ;
#220 = CC_DESIGN_DATE_AND_TIME_ASSIGNMENT ( #171, #234, ( #19 ) ) ;
#221 = MANIFOLD_SOLID_BREP ( 'Pøidat vysunutím3', #252 ) ;
#222 = EDGE_LOOP ( 'NONE', ( #93, #15, #127, #58 ) ) ;
#223 = CARTESIAN_POINT ( 'NONE',  ( 6.000000000000000888, 7.347880794884120722E-16, 257.0000000000000000 ) ) ;
#224 = VECTOR ( 'NONE', #89, 1000.000000000000000 ) ;
#225 = DIRECTION ( 'NONE',  ( -1.000000000000000000, 0.000000000000000000, 0.000000000000000000 ) ) ;
#226 = AXIS2_PLACEMENT_3D ( 'NONE', #113, #8, #183 ) ;
#227 = DIRECTION ( 'NONE',  ( 0.000000000000000000, 0.000000000000000000, 1.000000000000000000 ) ) ;
#228 = CARTESIAN_POINT ( 'NONE',  ( 0.000000000000000000, 0.000000000000000000, 257.0000000000000000 ) ) ;
#229 = CARTESIAN_POINT ( 'NONE',  ( -6.000000000000000888, 0.000000000000000000, 257.0000000000000000 ) ) ;
#230 = AXIS2_PLACEMENT_3D ( 'NONE', #117, #112, #98 ) ;
#231 = LINE ( 'NONE', #120, #224 ) ;
#232 = APPROVAL_ROLE ( '' ) ;
#233 = DIRECTION ( 'NONE',  ( 0.000000000000000000, 0.000000000000000000, 1.000000000000000000 ) ) ;
#234 = DATE_TIME_ROLE ( 'creation_date' ) ;
#235 = PERSON_AND_ORGANIZATION_ROLE ( 'design_owner' ) ;
#236 = APPROVAL_STATUS ( 'not_yet_approved' ) ;
#237 = ORIENTED_EDGE ( 'NONE', *, *, #74, .T. ) ;
#238 = VERTEX_POINT ( 'NONE', #229 ) ;
#239 = DESIGN_CONTEXT ( 'detailed design', #149, 'design' ) ;
#240 = EDGE_LOOP ( 'NONE', ( #243, #73 ) ) ;
#241 = EDGE_LOOP ( 'NONE', ( #54, #94 ) ) ;
#242 = AXIS2_PLACEMENT_3D ( 'NONE', #40, #114, #204 ) ;
#243 = ORIENTED_EDGE ( 'NONE', *, *, #39, .T. ) ;
#244 = FACE_OUTER_BOUND ( 'NONE', #151, .T. ) ;
#245 = CARTESIAN_POINT ( 'NONE',  ( -6.000000000000000888, 0.000000000000000000, 257.0000000000000000 ) ) ;
#246 = CC_DESIGN_DATE_AND_TIME_ASSIGNMENT ( #166, #250, ( #42 ) ) ;
#247 = DIRECTION ( 'NONE',  ( 0.000000000000000000, 0.000000000000000000, 1.000000000000000000 ) ) ;
#248 = CARTESIAN_POINT ( 'NONE',  ( 0.000000000000000000, 0.000000000000000000, 7.000000000000000000 ) ) ;
#249 = CARTESIAN_POINT ( 'NONE',  ( 0.000000000000000000, 0.000000000000000000, 0.000000000000000000 ) ) ;
#250 = DATE_TIME_ROLE ( 'classification_date' ) ;
#251 = CALENDAR_DATE ( 2022, 7, 7 ) ;
#252 = CLOSED_SHELL ( 'NONE', ( #86, #64, #175, #201, #147, #156, #9 ) ) ;
#253 = AXIS2_PLACEMENT_3D ( 'NONE', #22, #206, #25 ) ;
#254 = PERSON_AND_ORGANIZATION ( #31, #4 ) ;
#255 = CARTESIAN_POINT ( 'NONE',  ( 0.000000000000000000, 0.000000000000000000, 0.000000000000000000 ) ) ;
ENDSEC;
END-ISO-10303-21;
