ISO-10303-21;
HEADER;
FILE_DESCRIPTION (( 'STEP AP203' ),
    '1' );
FILE_NAME ('b4a9.STEP',
    '2022-07-07T17:52:00',
    ( '' ),
    ( '' ),
    'SwSTEP 2.0',
    'SolidWorks 2019',
    '' );
FILE_SCHEMA (( 'CONFIG_CONTROL_DESIGN' ));
ENDSEC;

DATA;
#1 = ORIENTED_EDGE ( 'NONE', *, *, #93, .T. ) ;
#2 = PRODUCT_DEFINITION ( 'NEZNÁMÝ', '', #135, #24 ) ;
#3 = CC_DESIGN_PERSON_AND_ORGANIZATION_ASSIGNMENT ( #113, #242, ( #79 ) ) ;
#4 = EDGE_CURVE ( 'NONE', #194, #107, #139, .T. ) ;
#5 = PERSON_AND_ORGANIZATION ( #69, #22 ) ;
#6 = ADVANCED_FACE ( 'NONE', ( #28 ), #70, .T. ) ;
#7 = APPROVAL_DATE_TIME ( #182, #12 ) ;
#8 = APPLICATION_CONTEXT ( 'configuration controlled 3d designs of mechanical parts and assemblies' ) ;
#9 = FACE_OUTER_BOUND ( 'NONE', #206, .T. ) ;
#10 = CARTESIAN_POINT ( 'NONE',  ( 0.000000000000000000, 0.000000000000000000, 163.0000000000000000 ) ) ;
#11 = PRODUCT ( 'b4a9', 'b4a9', '', ( #164 ) ) ;
#12 = APPROVAL ( #140, 'NEURÈENÝ' ) ;
#13 = DIRECTION ( 'NONE',  ( 0.000000000000000000, 0.000000000000000000, 1.000000000000000000 ) ) ;
#14 = CARTESIAN_POINT ( 'NONE',  ( 4.000000000000000000, 4.898587196589412829E-16, 3.000000000000000000 ) ) ;
#15 = PERSON_AND_ORGANIZATION ( #69, #22 ) ;
#16 = DIRECTION ( 'NONE',  ( 0.000000000000000000, 0.000000000000000000, 1.000000000000000000 ) ) ;
#17 = CARTESIAN_POINT ( 'NONE',  ( 0.000000000000000000, 0.000000000000000000, 0.000000000000000000 ) ) ;
#18 = ORIENTED_EDGE ( 'NONE', *, *, #136, .T. ) ;
#19 = EDGE_CURVE ( 'NONE', #73, #237, #149, .T. ) ;
#20 = LOCAL_TIME ( 19, 52, 0.000000000000000000, #95 ) ;
#21 = CC_DESIGN_DATE_AND_TIME_ASSIGNMENT ( #98, #77, ( #2 ) ) ;
#22 = ORGANIZATION ( 'NEURÈENÝ', 'NEURÈENÝ', '' ) ;
#23 = VECTOR ( 'NONE', #67, 1000.000000000000000 ) ;
#24 = DESIGN_CONTEXT ( 'detailed design', #199, 'design' ) ;
#25 = CALENDAR_DATE ( 2022, 7, 7 ) ;
#26 = PERSON_AND_ORGANIZATION_ROLE ( 'creator' ) ;
#27 = DIRECTION ( 'NONE',  ( -0.000000000000000000, -0.000000000000000000, -1.000000000000000000 ) ) ;
#28 = FACE_OUTER_BOUND ( 'NONE', #196, .T. ) ;
#29 = DIRECTION ( 'NONE',  ( 1.000000000000000000, 0.000000000000000000, -0.000000000000000000 ) ) ;
#30 = AXIS2_PLACEMENT_3D ( 'NONE', #100, #64, #226 ) ;
#31 = CARTESIAN_POINT ( 'NONE',  ( 0.000000000000000000, 0.000000000000000000, 163.0000000000000000 ) ) ;
#32 = DIRECTION ( 'NONE',  ( -1.000000000000000000, 0.000000000000000000, 0.000000000000000000 ) ) ;
#33 = ORIENTED_EDGE ( 'NONE', *, *, #181, .T. ) ;
#34 = FACE_OUTER_BOUND ( 'NONE', #130, .T. ) ;
#35 = LINE ( 'NONE', #89, #43 ) ;
#36 = LOCAL_TIME ( 19, 52, 0.000000000000000000, #179 ) ;
#37 = ORIENTED_EDGE ( 'NONE', *, *, #61, .F. ) ;
#38 = AXIS2_PLACEMENT_3D ( 'NONE', #212, #144, #147 ) ;
#39 = PRODUCT_DEFINITION_SHAPE ( 'NONE', 'NONE',  #2 ) ;
#40 = ORIENTED_EDGE ( 'NONE', *, *, #4, .T. ) ;
#41 = EDGE_CURVE ( 'NONE', #154, #127, #45, .T. ) ;
#42 = PERSON_AND_ORGANIZATION ( #69, #22 ) ;
#43 = VECTOR ( 'NONE', #106, 1000.000000000000000 ) ;
#44 = CALENDAR_DATE ( 2022, 7, 7 ) ;
#45 = CIRCLE ( 'NONE', #197, 4.000000000000000000 ) ;
#46 = DIRECTION ( 'NONE',  ( 1.000000000000000000, 0.000000000000000000, 0.000000000000000000 ) ) ;
#47 = DIRECTION ( 'NONE',  ( -0.000000000000000000, -0.000000000000000000, -1.000000000000000000 ) ) ;
#48 = APPLICATION_PROTOCOL_DEFINITION ( 'international standard', 'config_control_design', 1994, #8 ) ;
#49 = CARTESIAN_POINT ( 'NONE',  ( 0.000000000000000000, 0.000000000000000000, 0.000000000000000000 ) ) ;
#50 = APPLICATION_PROTOCOL_DEFINITION ( 'international standard', 'config_control_design', 1994, #199 ) ;
#51 = CARTESIAN_POINT ( 'NONE',  ( -4.000000000000000000, 0.000000000000000000, 3.000000000000000000 ) ) ;
#52 = FACE_OUTER_BOUND ( 'NONE', #255, .T. ) ;
#53 = AXIS2_PLACEMENT_3D ( 'NONE', #145, #119, #171 ) ;
#54 = ORIENTED_EDGE ( 'NONE', *, *, #41, .T. ) ;
#55 = VECTOR ( 'NONE', #47, 1000.000000000000000 ) ;
#56 = PERSON_AND_ORGANIZATION ( #69, #22 ) ;
#57 = PERSON_AND_ORGANIZATION_ROLE ( 'design_supplier' ) ;
#58 = MANIFOLD_SOLID_BREP ( 'Pøidat vysunutím3', #165 ) ;
#59 = PERSON_AND_ORGANIZATION ( #69, #22 ) ;
#60 = PERSON_AND_ORGANIZATION_ROLE ( 'creator' ) ;
#61 = EDGE_CURVE ( 'NONE', #154, #107, #163, .T. ) ;
#62 = DIRECTION ( 'NONE',  ( 0.000000000000000000, 0.000000000000000000, 1.000000000000000000 ) ) ;
#63 = FACE_OUTER_BOUND ( 'NONE', #217, .T. ) ;
#64 = DIRECTION ( 'NONE',  ( -0.000000000000000000, -0.000000000000000000, -1.000000000000000000 ) ) ;
#65 =( NAMED_UNIT ( * ) PLANE_ANGLE_UNIT ( ) SI_UNIT ( $, .RADIAN. ) );
#66 = CC_DESIGN_PERSON_AND_ORGANIZATION_ASSIGNMENT ( #56, #60, ( #2 ) ) ;
#67 = DIRECTION ( 'NONE',  ( -0.000000000000000000, -0.000000000000000000, -1.000000000000000000 ) ) ;
#68 = PLANE ( 'NONE',  #72 ) ;
#69 = PERSON ( 'NEURÈENÝ', 'NEURÈENÝ', 'NEURÈENÝ', ('NEURÈENÝ'), ('NEURÈENÝ'), ('NEURÈENÝ') ) ;
#70 = CYLINDRICAL_SURFACE ( 'NONE', #203, 2.000000000000000000 ) ;
#71 = DIRECTION ( 'NONE',  ( 1.000000000000000000, 0.000000000000000000, -0.000000000000000000 ) ) ;
#72 = AXIS2_PLACEMENT_3D ( 'NONE', #17, #124, #71 ) ;
#73 = VERTEX_POINT ( 'NONE', #189 ) ;
#74 = DIRECTION ( 'NONE',  ( 0.000000000000000000, 0.000000000000000000, 1.000000000000000000 ) ) ;
#75 = ORIENTED_EDGE ( 'NONE', *, *, #19, .T. ) ;
#76 = CIRCLE ( 'NONE', #252, 4.000000000000000000 ) ;
#77 = DATE_TIME_ROLE ( 'creation_date' ) ;
#78 = COORDINATED_UNIVERSAL_TIME_OFFSET ( 1, 0, .AHEAD. ) ;
#79 = SECURITY_CLASSIFICATION ( '', '', #180 ) ;
#80 = DIRECTION ( 'NONE',  ( -0.000000000000000000, -0.000000000000000000, -1.000000000000000000 ) ) ;
#81 = EDGE_CURVE ( 'NONE', #109, #132, #245, .T. ) ;
#82 = CYLINDRICAL_SURFACE ( 'NONE', #30, 4.000000000000000000 ) ;
#83 = CC_DESIGN_PERSON_AND_ORGANIZATION_ASSIGNMENT ( #148, #230, ( #11 ) ) ;
#84 = DIRECTION ( 'NONE',  ( 1.000000000000000000, 0.000000000000000000, -0.000000000000000000 ) ) ;
#85 = CARTESIAN_POINT ( 'NONE',  ( -2.000000000000000000, 0.000000000000000000, 163.0000000000000000 ) ) ;
#86 =( NAMED_UNIT ( * ) SI_UNIT ( $, .STERADIAN. ) SOLID_ANGLE_UNIT ( ) );
#87 = ORIENTED_EDGE ( 'NONE', *, *, #81, .F. ) ;
#88 = DIRECTION ( 'NONE',  ( 1.000000000000000000, 0.000000000000000000, 0.000000000000000000 ) ) ;
#89 = CARTESIAN_POINT ( 'NONE',  ( 4.000000000000000000, 4.898587196589412829E-16, 3.000000000000000000 ) ) ;
#90 = AXIS2_PLACEMENT_3D ( 'NONE', #233, #168, #162 ) ;
#91 = ORIENTED_EDGE ( 'NONE', *, *, #4, .F. ) ;
#92 = ORIENTED_EDGE ( 'NONE', *, *, #19, .F. ) ;
#93 = EDGE_CURVE ( 'NONE', #237, #132, #188, .T. ) ;
#94 = AXIS2_PLACEMENT_3D ( 'NONE', #31, #192, #84 ) ;
#95 = COORDINATED_UNIVERSAL_TIME_OFFSET ( 1, 0, .AHEAD. ) ;
#96 = DATE_TIME_ROLE ( 'classification_date' ) ;
#97 = AXIS2_PLACEMENT_3D ( 'NONE', #190, #184, #187 ) ;
#98 = DATE_AND_TIME ( #44, #225 ) ;
#99 = DIRECTION ( 'NONE',  ( -1.000000000000000000, 0.000000000000000000, 0.000000000000000000 ) ) ;
#100 = CARTESIAN_POINT ( 'NONE',  ( 0.000000000000000000, 0.000000000000000000, 3.000000000000000000 ) ) ;
#101 = EDGE_CURVE ( 'NONE', #127, #154, #76, .T. ) ;
#102 = CARTESIAN_POINT ( 'NONE',  ( 0.000000000000000000, 0.000000000000000000, 3.000000000000000000 ) ) ;
#103 = ORIENTED_EDGE ( 'NONE', *, *, #181, .F. ) ;
#104 = PLANE ( 'NONE',  #94 ) ;
#105 = LOCAL_TIME ( 19, 52, 0.000000000000000000, #78 ) ;
#106 = DIRECTION ( 'NONE',  ( -0.000000000000000000, -0.000000000000000000, -1.000000000000000000 ) ) ;
#107 = VERTEX_POINT ( 'NONE', #247 ) ;
#108 = ADVANCED_FACE ( 'NONE', ( #9 ), #82, .T. ) ;
#109 = VERTEX_POINT ( 'NONE', #186 ) ;
#110 = EDGE_LOOP ( 'NONE', ( #92, #254, #219, #152 ) ) ;
#111 = ORIENTED_EDGE ( 'NONE', *, *, #221, .F. ) ;
#112 = AXIS2_PLACEMENT_3D ( 'NONE', #251, #74, #208 ) ;
#113 = PERSON_AND_ORGANIZATION ( #69, #22 ) ;
#114 = COORDINATED_UNIVERSAL_TIME_OFFSET ( 1, 0, .AHEAD. ) ;
#115 = APPROVAL_ROLE ( '' ) ;
#116 = VECTOR ( 'NONE', #183, 1000.000000000000000 ) ;
#117 = APPROVAL_ROLE ( '' ) ;
#118 = DIRECTION ( 'NONE',  ( 0.000000000000000000, 0.000000000000000000, 1.000000000000000000 ) ) ;
#119 = DIRECTION ( 'NONE',  ( 0.000000000000000000, 0.000000000000000000, 1.000000000000000000 ) ) ;
#120 = CARTESIAN_POINT ( 'NONE',  ( 0.000000000000000000, 0.000000000000000000, 163.0000000000000000 ) ) ;
#121 = ADVANCED_FACE ( 'NONE', ( #34 ), #104, .T. ) ;
#122 =( LENGTH_UNIT ( ) NAMED_UNIT ( * ) SI_UNIT ( .MILLI., .METRE. ) );
#123 = DIRECTION ( 'NONE',  ( 1.000000000000000000, 0.000000000000000000, 0.000000000000000000 ) ) ;
#124 = DIRECTION ( 'NONE',  ( 0.000000000000000000, 0.000000000000000000, 1.000000000000000000 ) ) ;
#125 = AXIS2_PLACEMENT_3D ( 'NONE', #146, #27, #99 ) ;
#126 = ORIENTED_EDGE ( 'NONE', *, *, #101, .T. ) ;
#127 = VERTEX_POINT ( 'NONE', #14 ) ;
#128 = FACE_OUTER_BOUND ( 'NONE', #110, .T. ) ;
#129 = CC_DESIGN_APPROVAL ( #12, ( #79 ) ) ;
#130 = EDGE_LOOP ( 'NONE', ( #18, #211 ) ) ;
#131 = EDGE_CURVE ( 'NONE', #132, #237, #232, .T. ) ;
#132 = VERTEX_POINT ( 'NONE', #170 ) ;
#133 = CIRCLE ( 'NONE', #53, 4.000000000000000000 ) ;
#134 = EDGE_LOOP ( 'NONE', ( #111, #214, #250, #33 ) ) ;
#135 = PRODUCT_DEFINITION_FORMATION_WITH_SPECIFIED_SOURCE ( 'LIBOVOLNÝ', '', #11, .NOT_KNOWN. ) ;
#136 = EDGE_CURVE ( 'NONE', #109, #73, #209, .T. ) ;
#137 = DATE_AND_TIME ( #201, #236 ) ;
#138 = ADVANCED_BREP_SHAPE_REPRESENTATION ( 'b4a9', ( #58, #97 ), #177 ) ;
#139 = CIRCLE ( 'NONE', #215, 4.000000000000000000 ) ;
#140 = APPROVAL_STATUS ( 'not_yet_approved' ) ;
#141 = COORDINATED_UNIVERSAL_TIME_OFFSET ( 1, 0, .AHEAD. ) ;
#142 = APPROVAL_PERSON_ORGANIZATION ( #200, #12, #115 ) ;
#143 = SHAPE_DEFINITION_REPRESENTATION ( #39, #138 ) ;
#144 = DIRECTION ( 'NONE',  ( 0.000000000000000000, 0.000000000000000000, 1.000000000000000000 ) ) ;
#145 = CARTESIAN_POINT ( 'NONE',  ( 0.000000000000000000, 0.000000000000000000, 0.000000000000000000 ) ) ;
#146 = CARTESIAN_POINT ( 'NONE',  ( 0.000000000000000000, 0.000000000000000000, 3.000000000000000000 ) ) ;
#147 = DIRECTION ( 'NONE',  ( 1.000000000000000000, 0.000000000000000000, 0.000000000000000000 ) ) ;
#148 = PERSON_AND_ORGANIZATION ( #69, #22 ) ;
#149 = LINE ( 'NONE', #166, #23 ) ;
#150 = CARTESIAN_POINT ( 'NONE',  ( 0.000000000000000000, 0.000000000000000000, 3.000000000000000000 ) ) ;
#151 = AXIS2_PLACEMENT_3D ( 'NONE', #10, #193, #32 ) ;
#152 = ORIENTED_EDGE ( 'NONE', *, *, #131, .T. ) ;
#153 = ADVANCED_FACE ( 'NONE', ( #161 ), #248, .T. ) ;
#154 = VERTEX_POINT ( 'NONE', #228 ) ;
#155 = AXIS2_PLACEMENT_3D ( 'NONE', #150, #207, #29 ) ;
#156 = ADVANCED_FACE ( 'NONE', ( #63 ), #68, .F. ) ;
#157 = APPROVAL_DATE_TIME ( #223, #216 ) ;
#158 = CC_DESIGN_PERSON_AND_ORGANIZATION_ASSIGNMENT ( #5, #57, ( #135 ) ) ;
#159 = APPROVAL_ROLE ( '' ) ;
#160 = APPROVAL_STATUS ( 'not_yet_approved' ) ;
#161 = FACE_OUTER_BOUND ( 'NONE', #134, .T. ) ;
#162 = DIRECTION ( 'NONE',  ( 1.000000000000000000, 0.000000000000000000, 0.000000000000000000 ) ) ;
#163 = LINE ( 'NONE', #51, #116 ) ;
#164 = MECHANICAL_CONTEXT ( 'NONE', #8, 'mechanical' ) ;
#165 = CLOSED_SHELL ( 'NONE', ( #6, #108, #153, #185, #156, #241, #121 ) ) ;
#166 = CARTESIAN_POINT ( 'NONE',  ( 2.000000000000000000, 2.449293598294706414E-16, 163.0000000000000000 ) ) ;
#167 = CARTESIAN_POINT ( 'NONE',  ( 0.000000000000000000, 0.000000000000000000, 3.000000000000000000 ) ) ;
#168 = DIRECTION ( 'NONE',  ( 0.000000000000000000, 0.000000000000000000, 1.000000000000000000 ) ) ;
#169 = ORIENTED_EDGE ( 'NONE', *, *, #221, .T. ) ;
#170 = CARTESIAN_POINT ( 'NONE',  ( -2.000000000000000000, 0.000000000000000000, 3.000000000000000000 ) ) ;
#171 = DIRECTION ( 'NONE',  ( 1.000000000000000000, 0.000000000000000000, 0.000000000000000000 ) ) ;
#172 = CIRCLE ( 'NONE', #90, 2.000000000000000000 ) ;
#173 = ORIENTED_EDGE ( 'NONE', *, *, #101, .F. ) ;
#174 = ORIENTED_EDGE ( 'NONE', *, *, #93, .F. ) ;
#175 = EDGE_LOOP ( 'NONE', ( #238, #174 ) ) ;
#176 = CC_DESIGN_DATE_AND_TIME_ASSIGNMENT ( #137, #96, ( #79 ) ) ;
#177 =( GEOMETRIC_REPRESENTATION_CONTEXT ( 3 ) GLOBAL_UNCERTAINTY_ASSIGNED_CONTEXT ( ( #234 ) ) GLOBAL_UNIT_ASSIGNED_CONTEXT ( ( #122, #65, #86 ) ) REPRESENTATION_CONTEXT ( 'NONE', 'WORKASPACE' ) );
#178 = CC_DESIGN_SECURITY_CLASSIFICATION ( #79, ( #135 ) ) ;
#179 = COORDINATED_UNIVERSAL_TIME_OFFSET ( 1, 0, .AHEAD. ) ;
#180 = SECURITY_CLASSIFICATION_LEVEL ( 'unclassified' ) ;
#181 = EDGE_CURVE ( 'NONE', #107, #194, #133, .T. ) ;
#182 = DATE_AND_TIME ( #202, #36 ) ;
#183 = DIRECTION ( 'NONE',  ( -0.000000000000000000, -0.000000000000000000, -1.000000000000000000 ) ) ;
#184 = DIRECTION ( 'NONE',  ( 0.000000000000000000, 0.000000000000000000, 1.000000000000000000 ) ) ;
#185 = ADVANCED_FACE ( 'NONE', ( #213, #52 ), #205, .T. ) ;
#186 = CARTESIAN_POINT ( 'NONE',  ( -2.000000000000000000, 0.000000000000000000, 163.0000000000000000 ) ) ;
#187 = DIRECTION ( 'NONE',  ( 1.000000000000000000, 0.000000000000000000, 0.000000000000000000 ) ) ;
#188 = CIRCLE ( 'NONE', #38, 2.000000000000000000 ) ;
#189 = CARTESIAN_POINT ( 'NONE',  ( 2.000000000000000000, 2.449293598294706414E-16, 163.0000000000000000 ) ) ;
#190 = CARTESIAN_POINT ( 'NONE',  ( 0.000000000000000000, 0.000000000000000000, 0.000000000000000000 ) ) ;
#191 = EDGE_CURVE ( 'NONE', #73, #109, #172, .T. ) ;
#192 = DIRECTION ( 'NONE',  ( 0.000000000000000000, 0.000000000000000000, 1.000000000000000000 ) ) ;
#193 = DIRECTION ( 'NONE',  ( -0.000000000000000000, -0.000000000000000000, -1.000000000000000000 ) ) ;
#194 = VERTEX_POINT ( 'NONE', #227 ) ;
#195 = CC_DESIGN_APPROVAL ( #240, ( #2 ) ) ;
#196 = EDGE_LOOP ( 'NONE', ( #235, #75, #1, #87 ) ) ;
#197 = AXIS2_PLACEMENT_3D ( 'NONE', #102, #118, #123 ) ;
#198 = PRODUCT_RELATED_PRODUCT_CATEGORY ( 'detail', '', ( #11 ) ) ;
#199 = APPLICATION_CONTEXT ( 'configuration controlled 3d designs of mechanical parts and assemblies' ) ;
#200 = PERSON_AND_ORGANIZATION ( #69, #22 ) ;
#201 = CALENDAR_DATE ( 2022, 7, 7 ) ;
#202 = CALENDAR_DATE ( 2022, 7, 7 ) ;
#203 = AXIS2_PLACEMENT_3D ( 'NONE', #120, #80, #231 ) ;
#204 = DIRECTION ( 'NONE',  ( 1.000000000000000000, 0.000000000000000000, 0.000000000000000000 ) ) ;
#205 = PLANE ( 'NONE',  #155 ) ;
#206 = EDGE_LOOP ( 'NONE', ( #173, #169, #40, #37 ) ) ;
#207 = DIRECTION ( 'NONE',  ( 0.000000000000000000, 0.000000000000000000, 1.000000000000000000 ) ) ;
#208 = DIRECTION ( 'NONE',  ( 1.000000000000000000, 0.000000000000000000, 0.000000000000000000 ) ) ;
#209 = CIRCLE ( 'NONE', #112, 2.000000000000000000 ) ;
#210 = APPROVAL_STATUS ( 'not_yet_approved' ) ;
#211 = ORIENTED_EDGE ( 'NONE', *, *, #191, .T. ) ;
#212 = CARTESIAN_POINT ( 'NONE',  ( 0.000000000000000000, 0.000000000000000000, 3.000000000000000000 ) ) ;
#213 = FACE_BOUND ( 'NONE', #175, .T. ) ;
#214 = ORIENTED_EDGE ( 'NONE', *, *, #41, .F. ) ;
#215 = AXIS2_PLACEMENT_3D ( 'NONE', #49, #62, #46 ) ;
#216 = APPROVAL ( #160, 'NEURÈENÝ' ) ;
#217 = EDGE_LOOP ( 'NONE', ( #103, #91 ) ) ;
#218 = APPROVAL_PERSON_ORGANIZATION ( #59, #216, #159 ) ;
#219 = ORIENTED_EDGE ( 'NONE', *, *, #81, .T. ) ;
#220 = CC_DESIGN_APPROVAL ( #216, ( #135 ) ) ;
#221 = EDGE_CURVE ( 'NONE', #127, #194, #35, .T. ) ;
#222 = DATE_AND_TIME ( #224, #20 ) ;
#223 = DATE_AND_TIME ( #25, #105 ) ;
#224 = CALENDAR_DATE ( 2022, 7, 7 ) ;
#225 = LOCAL_TIME ( 19, 52, 0.000000000000000000, #114 ) ;
#226 = DIRECTION ( 'NONE',  ( -1.000000000000000000, 0.000000000000000000, 0.000000000000000000 ) ) ;
#227 = CARTESIAN_POINT ( 'NONE',  ( 4.000000000000000000, 4.898587196589412829E-16, 0.000000000000000000 ) ) ;
#228 = CARTESIAN_POINT ( 'NONE',  ( -4.000000000000000000, 0.000000000000000000, 3.000000000000000000 ) ) ;
#229 = CARTESIAN_POINT ( 'NONE',  ( 0.000000000000000000, 0.000000000000000000, 3.000000000000000000 ) ) ;
#230 = PERSON_AND_ORGANIZATION_ROLE ( 'design_owner' ) ;
#231 = DIRECTION ( 'NONE',  ( -1.000000000000000000, 0.000000000000000000, 0.000000000000000000 ) ) ;
#232 = CIRCLE ( 'NONE', #246, 2.000000000000000000 ) ;
#233 = CARTESIAN_POINT ( 'NONE',  ( 0.000000000000000000, 0.000000000000000000, 163.0000000000000000 ) ) ;
#234 = UNCERTAINTY_MEASURE_WITH_UNIT (LENGTH_MEASURE( 1.000000000000000082E-05 ), #122, 'distance_accuracy_value', 'NONE');
#235 = ORIENTED_EDGE ( 'NONE', *, *, #191, .F. ) ;
#236 = LOCAL_TIME ( 19, 52, 0.000000000000000000, #141 ) ;
#237 = VERTEX_POINT ( 'NONE', #253 ) ;
#238 = ORIENTED_EDGE ( 'NONE', *, *, #131, .F. ) ;
#239 = APPROVAL_PERSON_ORGANIZATION ( #15, #240, #117 ) ;
#240 = APPROVAL ( #210, 'NEURÈENÝ' ) ;
#241 = ADVANCED_FACE ( 'NONE', ( #128 ), #249, .T. ) ;
#242 = PERSON_AND_ORGANIZATION_ROLE ( 'classification_officer' ) ;
#243 = CC_DESIGN_PERSON_AND_ORGANIZATION_ASSIGNMENT ( #42, #26, ( #135 ) ) ;
#244 = APPROVAL_DATE_TIME ( #222, #240 ) ;
#245 = LINE ( 'NONE', #85, #55 ) ;
#246 = AXIS2_PLACEMENT_3D ( 'NONE', #167, #16, #204 ) ;
#247 = CARTESIAN_POINT ( 'NONE',  ( -4.000000000000000000, 0.000000000000000000, 0.000000000000000000 ) ) ;
#248 = CYLINDRICAL_SURFACE ( 'NONE', #125, 4.000000000000000000 ) ;
#249 = CYLINDRICAL_SURFACE ( 'NONE', #151, 2.000000000000000000 ) ;
#250 = ORIENTED_EDGE ( 'NONE', *, *, #61, .T. ) ;
#251 = CARTESIAN_POINT ( 'NONE',  ( 0.000000000000000000, 0.000000000000000000, 163.0000000000000000 ) ) ;
#252 = AXIS2_PLACEMENT_3D ( 'NONE', #229, #13, #88 ) ;
#253 = CARTESIAN_POINT ( 'NONE',  ( 2.000000000000000000, 2.449293598294706414E-16, 3.000000000000000000 ) ) ;
#254 = ORIENTED_EDGE ( 'NONE', *, *, #136, .F. ) ;
#255 = EDGE_LOOP ( 'NONE', ( #54, #126 ) ) ;
ENDSEC;
END-ISO-10303-21;
