ISO-10303-21;
HEADER;
FILE_DESCRIPTION (( 'STEP AP203' ),
    '1' );
FILE_NAME ('d9a9.STEP',
    '2022-07-07T17:12:16',
    ( '' ),
    ( '' ),
    'SwSTEP 2.0',
    'SolidWorks 2019',
    '' );
FILE_SCHEMA (( 'CONFIG_CONTROL_DESIGN' ));
ENDSEC;

DATA;
#1 = ADVANCED_FACE ( 'NONE', ( #164 ), #141, .T. ) ;
#2 = ADVANCED_FACE ( 'NONE', ( #220 ), #84, .F. ) ;
#3 = VECTOR ( 'NONE', #226, 1000.000000000000000 ) ;
#4 = PERSON_AND_ORGANIZATION ( #14, #50 ) ;
#5 = ADVANCED_BREP_SHAPE_REPRESENTATION ( 'd9a9', ( #94, #104 ), #221 ) ;
#6 = LOCAL_TIME ( 19, 12, 16.00000000000000000, #172 ) ;
#7 = EDGE_LOOP ( 'NONE', ( #143, #108, #240, #105 ) ) ;
#8 = VERTEX_POINT ( 'NONE', #242 ) ;
#9 = CARTESIAN_POINT ( 'NONE',  ( -11.00000000000000000, 0.000000000000000000, 0.000000000000000000 ) ) ;
#10 = VERTEX_POINT ( 'NONE', #150 ) ;
#11 = DIRECTION ( 'NONE',  ( 1.000000000000000000, 0.000000000000000000, 0.000000000000000000 ) ) ;
#12 = VERTEX_POINT ( 'NONE', #191 ) ;
#13 = CARTESIAN_POINT ( 'NONE',  ( 0.000000000000000000, 0.000000000000000000, 7.000000000000000000 ) ) ;
#14 = PERSON ( 'NEURÈENÝ', 'NEURÈENÝ', 'NEURÈENÝ', ('NEURÈENÝ'), ('NEURÈENÝ'), ('NEURÈENÝ') ) ;
#15 = CARTESIAN_POINT ( 'NONE',  ( 11.00000000000000000, 1.347111479062088405E-15, 0.000000000000000000 ) ) ;
#16 = CARTESIAN_POINT ( 'NONE',  ( 11.00000000000000000, 1.347111479062088405E-15, 7.000000000000000000 ) ) ;
#17 = CARTESIAN_POINT ( 'NONE',  ( 0.000000000000000000, 0.000000000000000000, 7.000000000000000000 ) ) ;
#18 = AXIS2_PLACEMENT_3D ( 'NONE', #74, #95, #248 ) ;
#19 = CARTESIAN_POINT ( 'NONE',  ( 0.000000000000000000, 0.000000000000000000, 0.000000000000000000 ) ) ;
#20 = CALENDAR_DATE ( 2022, 7, 7 ) ;
#21 = EDGE_CURVE ( 'NONE', #67, #29, #57, .T. ) ;
#22 = EDGE_CURVE ( 'NONE', #67, #8, #118, .T. ) ;
#23 = PERSON_AND_ORGANIZATION ( #14, #50 ) ;
#24 = LOCAL_TIME ( 19, 12, 16.00000000000000000, #254 ) ;
#25 = ADVANCED_FACE ( 'NONE', ( #171 ), #134, .T. ) ;
#26 = EDGE_CURVE ( 'NONE', #184, #10, #231, .T. ) ;
#27 = ORIENTED_EDGE ( 'NONE', *, *, #21, .T. ) ;
#28 = ADVANCED_FACE ( 'NONE', ( #190 ), #53, .T. ) ;
#29 = VERTEX_POINT ( 'NONE', #9 ) ;
#30 = ORIENTED_EDGE ( 'NONE', *, *, #205, .T. ) ;
#31 = DIRECTION ( 'NONE',  ( -1.000000000000000000, 0.000000000000000000, 0.000000000000000000 ) ) ;
#32 = ORIENTED_EDGE ( 'NONE', *, *, #21, .F. ) ;
#33 = APPLICATION_CONTEXT ( 'configuration controlled 3d designs of mechanical parts and assemblies' ) ;
#34 = FACE_OUTER_BOUND ( 'NONE', #243, .T. ) ;
#35 = FACE_BOUND ( 'NONE', #106, .T. ) ;
#36 = LINE ( 'NONE', #56, #179 ) ;
#37 = CC_DESIGN_APPROVAL ( #66, ( #123 ) ) ;
#38 = DATE_TIME_ROLE ( 'classification_date' ) ;
#39 = DIRECTION ( 'NONE',  ( -0.000000000000000000, -0.000000000000000000, -1.000000000000000000 ) ) ;
#40 = COORDINATED_UNIVERSAL_TIME_OFFSET ( 1, 0, .AHEAD. ) ;
#41 = CARTESIAN_POINT ( 'NONE',  ( 0.000000000000000000, 0.000000000000000000, 0.000000000000000000 ) ) ;
#42 = AXIS2_PLACEMENT_3D ( 'NONE', #87, #72, #146 ) ;
#43 = APPROVAL_PERSON_ORGANIZATION ( #46, #167, #176 ) ;
#44 = DIRECTION ( 'NONE',  ( 0.000000000000000000, 0.000000000000000000, 1.000000000000000000 ) ) ;
#45 = PRODUCT_DEFINITION_SHAPE ( 'NONE', 'NONE',  #123 ) ;
#46 = PERSON_AND_ORGANIZATION ( #14, #50 ) ;
#47 = CC_DESIGN_DATE_AND_TIME_ASSIGNMENT ( #117, #38, ( #64 ) ) ;
#48 = EDGE_CURVE ( 'NONE', #10, #12, #36, .T. ) ;
#49 = EDGE_LOOP ( 'NONE', ( #227, #69, #223, #225 ) ) ;
#50 = ORGANIZATION ( 'NEURÈENÝ', 'NEURÈENÝ', '' ) ;
#51 = CC_DESIGN_PERSON_AND_ORGANIZATION_ASSIGNMENT ( #4, #115, ( #148 ) ) ;
#52 = CARTESIAN_POINT ( 'NONE',  ( 0.000000000000000000, 0.000000000000000000, 0.000000000000000000 ) ) ;
#53 = PLANE ( 'NONE',  #147 ) ;
#54 = EDGE_LOOP ( 'NONE', ( #144, #65, #88, #32 ) ) ;
#55 = CC_DESIGN_DATE_AND_TIME_ASSIGNMENT ( #173, #253, ( #123 ) ) ;
#56 = CARTESIAN_POINT ( 'NONE',  ( -7.250000000000000000, 0.000000000000000000, 257.0000000000000000 ) ) ;
#57 = LINE ( 'NONE', #165, #158 ) ;
#58 = DIRECTION ( 'NONE',  ( -0.000000000000000000, -0.000000000000000000, -1.000000000000000000 ) ) ;
#59 = ADVANCED_FACE ( 'NONE', ( #208 ), #246, .T. ) ;
#60 = AXIS2_PLACEMENT_3D ( 'NONE', #52, #127, #198 ) ;
#61 = PERSON_AND_ORGANIZATION ( #14, #50 ) ;
#62 = SHAPE_DEFINITION_REPRESENTATION ( #45, #5 ) ;
#63 = CARTESIAN_POINT ( 'NONE',  ( 0.000000000000000000, 0.000000000000000000, 257.0000000000000000 ) ) ;
#64 = SECURITY_CLASSIFICATION ( '', '', #82 ) ;
#65 = ORIENTED_EDGE ( 'NONE', *, *, #182, .T. ) ;
#66 = APPROVAL ( #207, 'NEURÈENÝ' ) ;
#67 = VERTEX_POINT ( 'NONE', #189 ) ;
#68 = LOCAL_TIME ( 19, 12, 16.00000000000000000, #237 ) ;
#69 = ORIENTED_EDGE ( 'NONE', *, *, #159, .F. ) ;
#70 = DIRECTION ( 'NONE',  ( -0.000000000000000000, -0.000000000000000000, -1.000000000000000000 ) ) ;
#71 = ORIENTED_EDGE ( 'NONE', *, *, #26, .T. ) ;
#72 = DIRECTION ( 'NONE',  ( -0.000000000000000000, -0.000000000000000000, -1.000000000000000000 ) ) ;
#73 = ORIENTED_EDGE ( 'NONE', *, *, #181, .F. ) ;
#74 = CARTESIAN_POINT ( 'NONE',  ( 0.000000000000000000, 0.000000000000000000, 7.000000000000000000 ) ) ;
#75 = LINE ( 'NONE', #16, #83 ) ;
#76 =( NAMED_UNIT ( * ) SI_UNIT ( $, .STERADIAN. ) SOLID_ANGLE_UNIT ( ) );
#77 = AXIS2_PLACEMENT_3D ( 'NONE', #78, #212, #138 ) ;
#78 = CARTESIAN_POINT ( 'NONE',  ( 0.000000000000000000, 0.000000000000000000, 0.000000000000000000 ) ) ;
#79 = CALENDAR_DATE ( 2022, 7, 7 ) ;
#80 = APPROVAL_PERSON_ORGANIZATION ( #61, #66, #111 ) ;
#81 = PRODUCT ( 'd9a9', 'd9a9', '', ( #153 ) ) ;
#82 = SECURITY_CLASSIFICATION_LEVEL ( 'unclassified' ) ;
#83 = VECTOR ( 'NONE', #39, 1000.000000000000000 ) ;
#84 = PLANE ( 'NONE',  #60 ) ;
#85 = AXIS2_PLACEMENT_3D ( 'NONE', #17, #229, #163 ) ;
#86 = ORIENTED_EDGE ( 'NONE', *, *, #182, .F. ) ;
#87 = CARTESIAN_POINT ( 'NONE',  ( 0.000000000000000000, 0.000000000000000000, 257.0000000000000000 ) ) ;
#88 = ORIENTED_EDGE ( 'NONE', *, *, #206, .T. ) ;
#89 = DIRECTION ( 'NONE',  ( 1.000000000000000000, 0.000000000000000000, 0.000000000000000000 ) ) ;
#90 = ORIENTED_EDGE ( 'NONE', *, *, #205, .F. ) ;
#91 = DIRECTION ( 'NONE',  ( 0.000000000000000000, 0.000000000000000000, 1.000000000000000000 ) ) ;
#92 = AXIS2_PLACEMENT_3D ( 'NONE', #96, #112, #11 ) ;
#93 = EDGE_CURVE ( 'NONE', #8, #67, #214, .T. ) ;
#94 = MANIFOLD_SOLID_BREP ( 'Pøidat vysunutím3', #161 ) ;
#95 = DIRECTION ( 'NONE',  ( 0.000000000000000000, 0.000000000000000000, 1.000000000000000000 ) ) ;
#96 = CARTESIAN_POINT ( 'NONE',  ( 0.000000000000000000, 0.000000000000000000, 7.000000000000000000 ) ) ;
#97 = PERSON_AND_ORGANIZATION_ROLE ( 'creator' ) ;
#98 = DATE_AND_TIME ( #79, #24 ) ;
#99 = PERSON_AND_ORGANIZATION ( #14, #50 ) ;
#100 = CC_DESIGN_PERSON_AND_ORGANIZATION_ASSIGNMENT ( #99, #230, ( #81 ) ) ;
#101 =( LENGTH_UNIT ( ) NAMED_UNIT ( * ) SI_UNIT ( .MILLI., .METRE. ) );
#102 = APPROVAL_STATUS ( 'not_yet_approved' ) ;
#103 = DATE_AND_TIME ( #157, #68 ) ;
#104 = AXIS2_PLACEMENT_3D ( 'NONE', #41, #119, #170 ) ;
#105 = ORIENTED_EDGE ( 'NONE', *, *, #48, .F. ) ;
#106 = EDGE_LOOP ( 'NONE', ( #186, #73 ) ) ;
#107 = LINE ( 'NONE', #109, #3 ) ;
#108 = ORIENTED_EDGE ( 'NONE', *, *, #139, .T. ) ;
#109 = CARTESIAN_POINT ( 'NONE',  ( 7.250000000000000000, 8.878689293818310074E-16, 257.0000000000000000 ) ) ;
#110 = CARTESIAN_POINT ( 'NONE',  ( 0.000000000000000000, 0.000000000000000000, 7.000000000000000000 ) ) ;
#111 = APPROVAL_ROLE ( '' ) ;
#112 = DIRECTION ( 'NONE',  ( 0.000000000000000000, 0.000000000000000000, 1.000000000000000000 ) ) ;
#113 = CALENDAR_DATE ( 2022, 7, 7 ) ;
#114 = APPLICATION_CONTEXT ( 'configuration controlled 3d designs of mechanical parts and assemblies' ) ;
#115 = PERSON_AND_ORGANIZATION_ROLE ( 'design_supplier' ) ;
#116 = CALENDAR_DATE ( 2022, 7, 7 ) ;
#117 = DATE_AND_TIME ( #20, #209 ) ;
#118 = CIRCLE ( 'NONE', #85, 11.00000000000000000 ) ;
#119 = DIRECTION ( 'NONE',  ( 0.000000000000000000, 0.000000000000000000, 1.000000000000000000 ) ) ;
#120 = APPROVAL_DATE_TIME ( #103, #219 ) ;
#121 = AXIS2_PLACEMENT_3D ( 'NONE', #169, #201, #224 ) ;
#122 = CC_DESIGN_PERSON_AND_ORGANIZATION_ASSIGNMENT ( #23, #211, ( #64 ) ) ;
#123 = PRODUCT_DEFINITION ( 'NEZNÁMÝ', '', #148, #239 ) ;
#124 = AXIS2_PLACEMENT_3D ( 'NONE', #13, #204, #203 ) ;
#125 = AXIS2_PLACEMENT_3D ( 'NONE', #110, #91, #168 ) ;
#126 = ORIENTED_EDGE ( 'NONE', *, *, #93, .T. ) ;
#127 = DIRECTION ( 'NONE',  ( 0.000000000000000000, 0.000000000000000000, 1.000000000000000000 ) ) ;
#128 = VERTEX_POINT ( 'NONE', #15 ) ;
#129 = CARTESIAN_POINT ( 'NONE',  ( 0.000000000000000000, 0.000000000000000000, 257.0000000000000000 ) ) ;
#130 = AXIS2_PLACEMENT_3D ( 'NONE', #222, #131, #202 ) ;
#131 = DIRECTION ( 'NONE',  ( -0.000000000000000000, -0.000000000000000000, -1.000000000000000000 ) ) ;
#132 = CARTESIAN_POINT ( 'NONE',  ( 0.000000000000000000, 0.000000000000000000, 7.000000000000000000 ) ) ;
#133 = DIRECTION ( 'NONE',  ( 1.000000000000000000, 0.000000000000000000, -0.000000000000000000 ) ) ;
#134 = CYLINDRICAL_SURFACE ( 'NONE', #42, 7.250000000000000000 ) ;
#135 = DIRECTION ( 'NONE',  ( 1.000000000000000000, 0.000000000000000000, 0.000000000000000000 ) ) ;
#136 = DATE_AND_TIME ( #113, #142 ) ;
#137 = DIRECTION ( 'NONE',  ( -0.000000000000000000, -0.000000000000000000, -1.000000000000000000 ) ) ;
#138 = DIRECTION ( 'NONE',  ( 1.000000000000000000, 0.000000000000000000, 0.000000000000000000 ) ) ;
#139 = EDGE_CURVE ( 'NONE', #184, #245, #107, .T. ) ;
#140 = CC_DESIGN_APPROVAL ( #167, ( #64 ) ) ;
#141 = CYLINDRICAL_SURFACE ( 'NONE', #130, 11.00000000000000000 ) ;
#142 = LOCAL_TIME ( 19, 12, 16.00000000000000000, #154 ) ;
#143 = ORIENTED_EDGE ( 'NONE', *, *, #26, .F. ) ;
#144 = ORIENTED_EDGE ( 'NONE', *, *, #93, .F. ) ;
#145 = EDGE_LOOP ( 'NONE', ( #90, #199 ) ) ;
#146 = DIRECTION ( 'NONE',  ( -1.000000000000000000, 0.000000000000000000, 0.000000000000000000 ) ) ;
#147 = AXIS2_PLACEMENT_3D ( 'NONE', #129, #250, #133 ) ;
#148 = PRODUCT_DEFINITION_FORMATION_WITH_SPECIFIED_SOURCE ( 'LIBOVOLNÝ', '', #81, .NOT_KNOWN. ) ;
#149 = DIRECTION ( 'NONE',  ( 0.000000000000000000, 0.000000000000000000, 1.000000000000000000 ) ) ;
#150 = CARTESIAN_POINT ( 'NONE',  ( -7.250000000000000000, 0.000000000000000000, 257.0000000000000000 ) ) ;
#151 = CARTESIAN_POINT ( 'NONE',  ( 7.250000000000000000, 8.878689293818310074E-16, 257.0000000000000000 ) ) ;
#152 = PRODUCT_RELATED_PRODUCT_CATEGORY ( 'detail', '', ( #81 ) ) ;
#153 = MECHANICAL_CONTEXT ( 'NONE', #33, 'mechanical' ) ;
#154 = COORDINATED_UNIVERSAL_TIME_OFFSET ( 1, 0, .AHEAD. ) ;
#155 = APPLICATION_PROTOCOL_DEFINITION ( 'international standard', 'config_control_design', 1994, #33 ) ;
#156 = EDGE_CURVE ( 'NONE', #12, #245, #235, .T. ) ;
#157 = CALENDAR_DATE ( 2022, 7, 7 ) ;
#158 = VECTOR ( 'NONE', #70, 1000.000000000000000 ) ;
#159 = EDGE_CURVE ( 'NONE', #10, #184, #194, .T. ) ;
#160 = ORIENTED_EDGE ( 'NONE', *, *, #22, .F. ) ;
#161 = CLOSED_SHELL ( 'NONE', ( #25, #59, #1, #174, #2, #247, #28 ) ) ;
#162 = CC_DESIGN_SECURITY_CLASSIFICATION ( #64, ( #148 ) ) ;
#163 = DIRECTION ( 'NONE',  ( 1.000000000000000000, 0.000000000000000000, 0.000000000000000000 ) ) ;
#164 = FACE_OUTER_BOUND ( 'NONE', #166, .T. ) ;
#165 = CARTESIAN_POINT ( 'NONE',  ( -11.00000000000000000, 0.000000000000000000, 7.000000000000000000 ) ) ;
#166 = EDGE_LOOP ( 'NONE', ( #86, #160, #27, #30 ) ) ;
#167 = APPROVAL ( #102, 'NEURÈENÝ' ) ;
#168 = DIRECTION ( 'NONE',  ( 1.000000000000000000, 0.000000000000000000, -0.000000000000000000 ) ) ;
#169 = CARTESIAN_POINT ( 'NONE',  ( 0.000000000000000000, 0.000000000000000000, 257.0000000000000000 ) ) ;
#170 = DIRECTION ( 'NONE',  ( 1.000000000000000000, 0.000000000000000000, 0.000000000000000000 ) ) ;
#171 = FACE_OUTER_BOUND ( 'NONE', #7, .T. ) ;
#172 = COORDINATED_UNIVERSAL_TIME_OFFSET ( 1, 0, .AHEAD. ) ;
#173 = DATE_AND_TIME ( #116, #6 ) ;
#174 = ADVANCED_FACE ( 'NONE', ( #35, #34 ), #244, .T. ) ;
#175 = CARTESIAN_POINT ( 'NONE',  ( 7.250000000000000000, 8.878689293818310074E-16, 7.000000000000000000 ) ) ;
#176 = APPROVAL_ROLE ( '' ) ;
#177 = PERSON_AND_ORGANIZATION ( #14, #50 ) ;
#178 = CIRCLE ( 'NONE', #77, 11.00000000000000000 ) ;
#179 = VECTOR ( 'NONE', #228, 1000.000000000000000 ) ;
#180 = AXIS2_PLACEMENT_3D ( 'NONE', #187, #149, #89 ) ;
#181 = EDGE_CURVE ( 'NONE', #245, #12, #252, .T. ) ;
#182 = EDGE_CURVE ( 'NONE', #8, #128, #75, .T. ) ;
#183 = EDGE_LOOP ( 'NONE', ( #241, #71 ) ) ;
#184 = VERTEX_POINT ( 'NONE', #151 ) ;
#185 = AXIS2_PLACEMENT_3D ( 'NONE', #63, #137, #251 ) ;
#186 = ORIENTED_EDGE ( 'NONE', *, *, #156, .F. ) ;
#187 = CARTESIAN_POINT ( 'NONE',  ( 0.000000000000000000, 0.000000000000000000, 257.0000000000000000 ) ) ;
#188 = ORIENTED_EDGE ( 'NONE', *, *, #22, .T. ) ;
#189 = CARTESIAN_POINT ( 'NONE',  ( -11.00000000000000000, 0.000000000000000000, 7.000000000000000000 ) ) ;
#190 = FACE_OUTER_BOUND ( 'NONE', #183, .T. ) ;
#191 = CARTESIAN_POINT ( 'NONE',  ( -7.250000000000000000, 0.000000000000000000, 7.000000000000000000 ) ) ;
#192 = PERSON_AND_ORGANIZATION ( #14, #50 ) ;
#193 = CYLINDRICAL_SURFACE ( 'NONE', #185, 7.250000000000000000 ) ;
#194 = CIRCLE ( 'NONE', #180, 7.250000000000000000 ) ;
#195 = PERSON_AND_ORGANIZATION_ROLE ( 'creator' ) ;
#196 = CIRCLE ( 'NONE', #197, 11.00000000000000000 ) ;
#197 = AXIS2_PLACEMENT_3D ( 'NONE', #19, #44, #135 ) ;
#198 = DIRECTION ( 'NONE',  ( 1.000000000000000000, 0.000000000000000000, -0.000000000000000000 ) ) ;
#199 = ORIENTED_EDGE ( 'NONE', *, *, #206, .F. ) ;
#200 = CC_DESIGN_PERSON_AND_ORGANIZATION_ASSIGNMENT ( #192, #97, ( #123 ) ) ;
#201 = DIRECTION ( 'NONE',  ( 0.000000000000000000, 0.000000000000000000, 1.000000000000000000 ) ) ;
#202 = DIRECTION ( 'NONE',  ( -1.000000000000000000, 0.000000000000000000, 0.000000000000000000 ) ) ;
#203 = DIRECTION ( 'NONE',  ( 1.000000000000000000, 0.000000000000000000, 0.000000000000000000 ) ) ;
#204 = DIRECTION ( 'NONE',  ( 0.000000000000000000, 0.000000000000000000, 1.000000000000000000 ) ) ;
#205 = EDGE_CURVE ( 'NONE', #29, #128, #196, .T. ) ;
#206 = EDGE_CURVE ( 'NONE', #128, #29, #178, .T. ) ;
#207 = APPROVAL_STATUS ( 'not_yet_approved' ) ;
#208 = FACE_OUTER_BOUND ( 'NONE', #54, .T. ) ;
#209 = LOCAL_TIME ( 19, 12, 16.00000000000000000, #40 ) ;
#210 = APPROVAL_DATE_TIME ( #136, #66 ) ;
#211 = PERSON_AND_ORGANIZATION_ROLE ( 'classification_officer' ) ;
#212 = DIRECTION ( 'NONE',  ( 0.000000000000000000, 0.000000000000000000, 1.000000000000000000 ) ) ;
#213 = CC_DESIGN_PERSON_AND_ORGANIZATION_ASSIGNMENT ( #177, #195, ( #148 ) ) ;
#214 = CIRCLE ( 'NONE', #92, 11.00000000000000000 ) ;
#215 = CC_DESIGN_APPROVAL ( #219, ( #148 ) ) ;
#216 = APPROVAL_PERSON_ORGANIZATION ( #234, #219, #233 ) ;
#217 = APPLICATION_PROTOCOL_DEFINITION ( 'international standard', 'config_control_design', 1994, #114 ) ;
#218 = UNCERTAINTY_MEASURE_WITH_UNIT (LENGTH_MEASURE( 1.000000000000000082E-05 ), #101, 'distance_accuracy_value', 'NONE');
#219 = APPROVAL ( #255, 'NEURÈENÝ' ) ;
#220 = FACE_OUTER_BOUND ( 'NONE', #145, .T. ) ;
#221 =( GEOMETRIC_REPRESENTATION_CONTEXT ( 3 ) GLOBAL_UNCERTAINTY_ASSIGNED_CONTEXT ( ( #218 ) ) GLOBAL_UNIT_ASSIGNED_CONTEXT ( ( #101, #249, #76 ) ) REPRESENTATION_CONTEXT ( 'NONE', 'WORKASPACE' ) );
#222 = CARTESIAN_POINT ( 'NONE',  ( 0.000000000000000000, 0.000000000000000000, 7.000000000000000000 ) ) ;
#223 = ORIENTED_EDGE ( 'NONE', *, *, #48, .T. ) ;
#224 = DIRECTION ( 'NONE',  ( 1.000000000000000000, 0.000000000000000000, 0.000000000000000000 ) ) ;
#225 = ORIENTED_EDGE ( 'NONE', *, *, #156, .T. ) ;
#226 = DIRECTION ( 'NONE',  ( -0.000000000000000000, -0.000000000000000000, -1.000000000000000000 ) ) ;
#227 = ORIENTED_EDGE ( 'NONE', *, *, #139, .F. ) ;
#228 = DIRECTION ( 'NONE',  ( -0.000000000000000000, -0.000000000000000000, -1.000000000000000000 ) ) ;
#229 = DIRECTION ( 'NONE',  ( 0.000000000000000000, 0.000000000000000000, 1.000000000000000000 ) ) ;
#230 = PERSON_AND_ORGANIZATION_ROLE ( 'design_owner' ) ;
#231 = CIRCLE ( 'NONE', #121, 7.250000000000000000 ) ;
#232 = FACE_OUTER_BOUND ( 'NONE', #49, .T. ) ;
#233 = APPROVAL_ROLE ( '' ) ;
#234 = PERSON_AND_ORGANIZATION ( #14, #50 ) ;
#235 = CIRCLE ( 'NONE', #124, 7.250000000000000000 ) ;
#236 = AXIS2_PLACEMENT_3D ( 'NONE', #132, #58, #31 ) ;
#237 = COORDINATED_UNIVERSAL_TIME_OFFSET ( 1, 0, .AHEAD. ) ;
#238 = APPROVAL_DATE_TIME ( #98, #167 ) ;
#239 = DESIGN_CONTEXT ( 'detailed design', #114, 'design' ) ;
#240 = ORIENTED_EDGE ( 'NONE', *, *, #181, .T. ) ;
#241 = ORIENTED_EDGE ( 'NONE', *, *, #159, .T. ) ;
#242 = CARTESIAN_POINT ( 'NONE',  ( 11.00000000000000000, 1.347111479062088405E-15, 7.000000000000000000 ) ) ;
#243 = EDGE_LOOP ( 'NONE', ( #188, #126 ) ) ;
#244 = PLANE ( 'NONE',  #125 ) ;
#245 = VERTEX_POINT ( 'NONE', #175 ) ;
#246 = CYLINDRICAL_SURFACE ( 'NONE', #236, 11.00000000000000000 ) ;
#247 = ADVANCED_FACE ( 'NONE', ( #232 ), #193, .T. ) ;
#248 = DIRECTION ( 'NONE',  ( 1.000000000000000000, 0.000000000000000000, 0.000000000000000000 ) ) ;
#249 =( NAMED_UNIT ( * ) PLANE_ANGLE_UNIT ( ) SI_UNIT ( $, .RADIAN. ) );
#250 = DIRECTION ( 'NONE',  ( 0.000000000000000000, 0.000000000000000000, 1.000000000000000000 ) ) ;
#251 = DIRECTION ( 'NONE',  ( -1.000000000000000000, 0.000000000000000000, 0.000000000000000000 ) ) ;
#252 = CIRCLE ( 'NONE', #18, 7.250000000000000000 ) ;
#253 = DATE_TIME_ROLE ( 'creation_date' ) ;
#254 = COORDINATED_UNIVERSAL_TIME_OFFSET ( 1, 0, .AHEAD. ) ;
#255 = APPROVAL_STATUS ( 'not_yet_approved' ) ;
ENDSEC;
END-ISO-10303-21;
