ISO-10303-21;
HEADER;
FILE_DESCRIPTION (( 'STEP AP203' ),
    '1' );
FILE_NAME ('3c85.STEP',
    '2023-02-13T16:40:05',
    ( '' ),
    ( '' ),
    'SwSTEP 2.0',
    'SolidWorks 2019',
    '' );
FILE_SCHEMA (( 'CONFIG_CONTROL_DESIGN' ));
ENDSEC;

DATA;
#1 = DIRECTION ( 'NONE',  ( 0.000000000000000000, 0.000000000000000000, 1.000000000000000000 ) ) ;
#2 = APPROVAL_DATE_TIME ( #235, #88 ) ;
#3 = DIRECTION ( 'NONE',  ( 0.000000000000000000, 0.000000000000000000, 1.000000000000000000 ) ) ;
#4 = DIRECTION ( 'NONE',  ( -0.000000000000000000, -0.000000000000000000, -1.000000000000000000 ) ) ;
#5 = CARTESIAN_POINT ( 'NONE',  ( 0.000000000000000000, 0.000000000000000000, 2.000000000000000000 ) ) ;
#6 = CIRCLE ( 'NONE', #86, 2.500000000000000000 ) ;
#7 = PLANE ( 'NONE',  #29 ) ;
#8 = VERTEX_POINT ( 'NONE', #178 ) ;
#9 = ADVANCED_FACE ( 'NONE', ( #38 ), #200, .T. ) ;
#10 = CYLINDRICAL_SURFACE ( 'NONE', #139, 1.250000000000000000 ) ;
#11 = AXIS2_PLACEMENT_3D ( 'NONE', #46, #120, #140 ) ;
#12 = PRODUCT_DEFINITION_FORMATION_WITH_SPECIFIED_SOURCE ( 'LIBOVOLNÝ', '', #123, .NOT_KNOWN. ) ;
#13 = EDGE_CURVE ( 'NONE', #151, #35, #230, .T. ) ;
#14 = ADVANCED_FACE ( 'NONE', ( #81 ), #103, .T. ) ;
#15 = ORIENTED_EDGE ( 'NONE', *, *, #106, .F. ) ;
#16 = ORIENTED_EDGE ( 'NONE', *, *, #210, .F. ) ;
#17 = AXIS2_PLACEMENT_3D ( 'NONE', #59, #75, #94 ) ;
#18 = SECURITY_CLASSIFICATION ( '', '', #239 ) ;
#19 = EDGE_LOOP ( 'NONE', ( #147, #225 ) ) ;
#20 = CALENDAR_DATE ( 2023, 13, 2 ) ;
#21 = CARTESIAN_POINT ( 'NONE',  ( 0.000000000000000000, 0.000000000000000000, 250.0000000000000000 ) ) ;
#22 = PERSON_AND_ORGANIZATION ( #72, #233 ) ;
#23 = COORDINATED_UNIVERSAL_TIME_OFFSET ( 1, 0, .AHEAD. ) ;
#24 = EDGE_CURVE ( 'NONE', #77, #151, #6, .T. ) ;
#25 = CARTESIAN_POINT ( 'NONE',  ( 0.000000000000000000, 0.000000000000000000, 2.000000000000000000 ) ) ;
#26 = DIRECTION ( 'NONE',  ( 1.000000000000000000, 0.000000000000000000, 0.000000000000000000 ) ) ;
#27 = DIRECTION ( 'NONE',  ( -1.000000000000000000, 0.000000000000000000, 0.000000000000000000 ) ) ;
#28 = ADVANCED_FACE ( 'NONE', ( #218 ), #188, .F. ) ;
#29 = AXIS2_PLACEMENT_3D ( 'NONE', #224, #84, #170 ) ;
#30 = CC_DESIGN_APPROVAL ( #115, ( #12 ) ) ;
#31 = EDGE_LOOP ( 'NONE', ( #207, #107 ) ) ;
#32 = CC_DESIGN_PERSON_AND_ORGANIZATION_ASSIGNMENT ( #82, #215, ( #12 ) ) ;
#33 = ORIENTED_EDGE ( 'NONE', *, *, #251, .T. ) ;
#34 = VECTOR ( 'NONE', #4, 1000.000000000000000 ) ;
#35 = VERTEX_POINT ( 'NONE', #160 ) ;
#36 = DIRECTION ( 'NONE',  ( 1.000000000000000000, 0.000000000000000000, 0.000000000000000000 ) ) ;
#37 = APPROVAL_STATUS ( 'not_yet_approved' ) ;
#38 = FACE_OUTER_BOUND ( 'NONE', #19, .T. ) ;
#39 = CC_DESIGN_PERSON_AND_ORGANIZATION_ASSIGNMENT ( #76, #154, ( #141 ) ) ;
#40 = LINE ( 'NONE', #119, #34 ) ;
#41 = CARTESIAN_POINT ( 'NONE',  ( 0.000000000000000000, 0.000000000000000000, 2.000000000000000000 ) ) ;
#42 = EDGE_CURVE ( 'NONE', #206, #8, #184, .T. ) ;
#43 = CARTESIAN_POINT ( 'NONE',  ( 0.000000000000000000, 0.000000000000000000, 250.0000000000000000 ) ) ;
#44 = CC_DESIGN_SECURITY_CLASSIFICATION ( #18, ( #12 ) ) ;
#45 = DATE_TIME_ROLE ( 'classification_date' ) ;
#46 = CARTESIAN_POINT ( 'NONE',  ( 0.000000000000000000, 0.000000000000000000, 0.000000000000000000 ) ) ;
#47 = DIRECTION ( 'NONE',  ( 1.000000000000000000, 0.000000000000000000, 0.000000000000000000 ) ) ;
#48 = AXIS2_PLACEMENT_3D ( 'NONE', #55, #211, #110 ) ;
#49 = CC_DESIGN_APPROVAL ( #88, ( #18 ) ) ;
#50 = EDGE_LOOP ( 'NONE', ( #108, #113, #126, #51 ) ) ;
#51 = ORIENTED_EDGE ( 'NONE', *, *, #102, .F. ) ;
#52 = MECHANICAL_CONTEXT ( 'NONE', #177, 'mechanical' ) ;
#53 =( NAMED_UNIT ( * ) PLANE_ANGLE_UNIT ( ) SI_UNIT ( $, .RADIAN. ) );
#54 = EDGE_CURVE ( 'NONE', #206, #192, #125, .T. ) ;
#55 = CARTESIAN_POINT ( 'NONE',  ( 0.000000000000000000, 0.000000000000000000, 250.0000000000000000 ) ) ;
#56 = EDGE_CURVE ( 'NONE', #35, #195, #109, .T. ) ;
#57 = DIRECTION ( 'NONE',  ( 1.000000000000000000, 0.000000000000000000, 0.000000000000000000 ) ) ;
#58 = APPLICATION_CONTEXT ( 'configuration controlled 3d designs of mechanical parts and assemblies' ) ;
#59 = CARTESIAN_POINT ( 'NONE',  ( 0.000000000000000000, 0.000000000000000000, 2.000000000000000000 ) ) ;
#60 = DIRECTION ( 'NONE',  ( -1.000000000000000000, 0.000000000000000000, 0.000000000000000000 ) ) ;
#61 = DIRECTION ( 'NONE',  ( -0.000000000000000000, -0.000000000000000000, -1.000000000000000000 ) ) ;
#62 = CARTESIAN_POINT ( 'NONE',  ( -2.500000000000000000, 0.000000000000000000, 2.000000000000000000 ) ) ;
#63 = DIRECTION ( 'NONE',  ( 0.000000000000000000, 0.000000000000000000, 1.000000000000000000 ) ) ;
#64 = FACE_OUTER_BOUND ( 'NONE', #130, .T. ) ;
#65 = CIRCLE ( 'NONE', #189, 1.250000000000000000 ) ;
#66 =( GEOMETRIC_REPRESENTATION_CONTEXT ( 3 ) GLOBAL_UNCERTAINTY_ASSIGNED_CONTEXT ( ( #187 ) ) GLOBAL_UNIT_ASSIGNED_CONTEXT ( ( #194, #53, #198 ) ) REPRESENTATION_CONTEXT ( 'NONE', 'WORKASPACE' ) );
#67 = DIRECTION ( 'NONE',  ( -0.000000000000000000, -0.000000000000000000, -1.000000000000000000 ) ) ;
#68 = EDGE_LOOP ( 'NONE', ( #16, #246 ) ) ;
#69 = DIRECTION ( 'NONE',  ( 0.000000000000000000, 0.000000000000000000, 1.000000000000000000 ) ) ;
#70 = PRODUCT_RELATED_PRODUCT_CATEGORY ( 'detail', '', ( #123 ) ) ;
#71 = CALENDAR_DATE ( 2023, 13, 2 ) ;
#72 = PERSON ( 'NEURÈENÝ', 'NEURÈENÝ', 'NEURÈENÝ', ('NEURÈENÝ'), ('NEURÈENÝ'), ('NEURÈENÝ') ) ;
#73 = DATE_AND_TIME ( #176, #111 ) ;
#74 = COORDINATED_UNIVERSAL_TIME_OFFSET ( 1, 0, .AHEAD. ) ;
#75 = DIRECTION ( 'NONE',  ( 0.000000000000000000, 0.000000000000000000, 1.000000000000000000 ) ) ;
#76 = PERSON_AND_ORGANIZATION ( #72, #233 ) ;
#77 = VERTEX_POINT ( 'NONE', #62 ) ;
#78 = SHAPE_DEFINITION_REPRESENTATION ( #137, #217 ) ;
#79 = DIRECTION ( 'NONE',  ( 1.000000000000000000, 0.000000000000000000, 0.000000000000000000 ) ) ;
#80 = CARTESIAN_POINT ( 'NONE',  ( -1.250000000000000000, 0.000000000000000000, 250.0000000000000000 ) ) ;
#81 = FACE_OUTER_BOUND ( 'NONE', #212, .T. ) ;
#82 = PERSON_AND_ORGANIZATION ( #72, #233 ) ;
#83 = AXIS2_PLACEMENT_3D ( 'NONE', #21, #1, #136 ) ;
#84 = DIRECTION ( 'NONE',  ( 0.000000000000000000, 0.000000000000000000, 1.000000000000000000 ) ) ;
#85 = ORIENTED_EDGE ( 'NONE', *, *, #102, .T. ) ;
#86 = AXIS2_PLACEMENT_3D ( 'NONE', #5, #63, #122 ) ;
#87 = VERTEX_POINT ( 'NONE', #205 ) ;
#88 = APPROVAL ( #182, 'NEURÈENÝ' ) ;
#89 = ORIENTED_EDGE ( 'NONE', *, *, #42, .T. ) ;
#90 = CIRCLE ( 'NONE', #48, 1.250000000000000000 ) ;
#91 = COORDINATED_UNIVERSAL_TIME_OFFSET ( 1, 0, .AHEAD. ) ;
#92 = ADVANCED_FACE ( 'NONE', ( #203 ), #236, .T. ) ;
#93 = AXIS2_PLACEMENT_3D ( 'NONE', #43, #105, #245 ) ;
#94 = DIRECTION ( 'NONE',  ( 1.000000000000000000, 0.000000000000000000, 0.000000000000000000 ) ) ;
#95 = APPROVAL_ROLE ( '' ) ;
#96 = DIRECTION ( 'NONE',  ( -0.000000000000000000, -0.000000000000000000, -1.000000000000000000 ) ) ;
#97 = CALENDAR_DATE ( 2023, 13, 2 ) ;
#98 = CLOSED_SHELL ( 'NONE', ( #127, #92, #14, #149, #28, #121, #9 ) ) ;
#99 = FACE_OUTER_BOUND ( 'NONE', #223, .T. ) ;
#100 = APPROVAL_DATE_TIME ( #73, #115 ) ;
#101 = EDGE_CURVE ( 'NONE', #195, #35, #161, .T. ) ;
#102 = EDGE_CURVE ( 'NONE', #77, #195, #40, .T. ) ;
#103 = CYLINDRICAL_SURFACE ( 'NONE', #180, 2.500000000000000000 ) ;
#104 = DIRECTION ( 'NONE',  ( -0.000000000000000000, -0.000000000000000000, -1.000000000000000000 ) ) ;
#105 = DIRECTION ( 'NONE',  ( -0.000000000000000000, -0.000000000000000000, -1.000000000000000000 ) ) ;
#106 = EDGE_CURVE ( 'NONE', #192, #87, #238, .T. ) ;
#107 = ORIENTED_EDGE ( 'NONE', *, *, #56, .F. ) ;
#108 = ORIENTED_EDGE ( 'NONE', *, *, #251, .F. ) ;
#109 = CIRCLE ( 'NONE', #185, 2.500000000000000000 ) ;
#110 = DIRECTION ( 'NONE',  ( 1.000000000000000000, 0.000000000000000000, 0.000000000000000000 ) ) ;
#111 = LOCAL_TIME ( 17, 40, 5.000000000000000000, #91 ) ;
#112 = APPROVAL_ROLE ( '' ) ;
#113 = ORIENTED_EDGE ( 'NONE', *, *, #13, .T. ) ;
#114 = PERSON_AND_ORGANIZATION ( #72, #233 ) ;
#115 = APPROVAL ( #229, 'NEURÈENÝ' ) ;
#116 = VECTOR ( 'NONE', #186, 1000.000000000000000 ) ;
#117 = APPROVAL_PERSON_ORGANIZATION ( #22, #88, #95 ) ;
#118 = COORDINATED_UNIVERSAL_TIME_OFFSET ( 1, 0, .AHEAD. ) ;
#119 = CARTESIAN_POINT ( 'NONE',  ( -2.500000000000000000, 0.000000000000000000, 2.000000000000000000 ) ) ;
#120 = DIRECTION ( 'NONE',  ( 0.000000000000000000, 0.000000000000000000, 1.000000000000000000 ) ) ;
#121 = ADVANCED_FACE ( 'NONE', ( #99 ), #167, .T. ) ;
#122 = DIRECTION ( 'NONE',  ( 1.000000000000000000, 0.000000000000000000, 0.000000000000000000 ) ) ;
#123 = PRODUCT ( '3c85', '3c85', '', ( #52 ) ) ;
#124 = CIRCLE ( 'NONE', #197, 2.500000000000000000 ) ;
#125 = CIRCLE ( 'NONE', #157, 1.250000000000000000 ) ;
#126 = ORIENTED_EDGE ( 'NONE', *, *, #56, .T. ) ;
#127 = ADVANCED_FACE ( 'NONE', ( #64 ), #10, .T. ) ;
#128 = CARTESIAN_POINT ( 'NONE',  ( 0.000000000000000000, 0.000000000000000000, 250.0000000000000000 ) ) ;
#129 = ORIENTED_EDGE ( 'NONE', *, *, #138, .T. ) ;
#130 = EDGE_LOOP ( 'NONE', ( #228, #89, #129, #15 ) ) ;
#131 = CC_DESIGN_DATE_AND_TIME_ASSIGNMENT ( #234, #214, ( #141 ) ) ;
#132 = PERSON_AND_ORGANIZATION ( #72, #233 ) ;
#133 = APPROVAL_PERSON_ORGANIZATION ( #232, #115, #199 ) ;
#134 = CARTESIAN_POINT ( 'NONE',  ( 0.000000000000000000, 0.000000000000000000, 0.000000000000000000 ) ) ;
#135 = PERSON_AND_ORGANIZATION_ROLE ( 'design_owner' ) ;
#136 = DIRECTION ( 'NONE',  ( 1.000000000000000000, 0.000000000000000000, -0.000000000000000000 ) ) ;
#137 = PRODUCT_DEFINITION_SHAPE ( 'NONE', 'NONE',  #141 ) ;
#138 = EDGE_CURVE ( 'NONE', #8, #87, #65, .T. ) ;
#139 = AXIS2_PLACEMENT_3D ( 'NONE', #128, #67, #227 ) ;
#140 = DIRECTION ( 'NONE',  ( 1.000000000000000000, 0.000000000000000000, -0.000000000000000000 ) ) ;
#141 = PRODUCT_DEFINITION ( 'NEZNÁMÝ', '', #12, #146 ) ;
#142 = CALENDAR_DATE ( 2023, 13, 2 ) ;
#143 = MANIFOLD_SOLID_BREP ( 'Pøidat vysunutím3', #98 ) ;
#144 = AXIS2_PLACEMENT_3D ( 'NONE', #25, #96, #60 ) ;
#145 = CARTESIAN_POINT ( 'NONE',  ( 2.500000000000000000, 3.061616997868383141E-16, 2.000000000000000000 ) ) ;
#146 = DESIGN_CONTEXT ( 'detailed design', #58, 'design' ) ;
#147 = ORIENTED_EDGE ( 'NONE', *, *, #173, .T. ) ;
#148 = LOCAL_TIME ( 17, 40, 5.000000000000000000, #159 ) ;
#149 = ADVANCED_FACE ( 'NONE', ( #150, #190 ), #7, .T. ) ;
#150 = FACE_BOUND ( 'NONE', #68, .T. ) ;
#151 = VERTEX_POINT ( 'NONE', #243 ) ;
#152 = ORIENTED_EDGE ( 'NONE', *, *, #210, .T. ) ;
#153 = VECTOR ( 'NONE', #61, 1000.000000000000000 ) ;
#154 = PERSON_AND_ORGANIZATION_ROLE ( 'creator' ) ;
#155 = CARTESIAN_POINT ( 'NONE',  ( 0.000000000000000000, 0.000000000000000000, 2.000000000000000000 ) ) ;
#156 = DIRECTION ( 'NONE',  ( 0.000000000000000000, 0.000000000000000000, 1.000000000000000000 ) ) ;
#157 = AXIS2_PLACEMENT_3D ( 'NONE', #202, #3, #26 ) ;
#158 = CARTESIAN_POINT ( 'NONE',  ( 1.250000000000000000, 1.530808498934191571E-16, 250.0000000000000000 ) ) ;
#159 = COORDINATED_UNIVERSAL_TIME_OFFSET ( 1, 0, .AHEAD. ) ;
#160 = CARTESIAN_POINT ( 'NONE',  ( 2.500000000000000000, 3.061616997868383141E-16, 0.000000000000000000 ) ) ;
#161 = CIRCLE ( 'NONE', #253, 2.500000000000000000 ) ;
#162 = LOCAL_TIME ( 17, 40, 5.000000000000000000, #74 ) ;
#163 = LOCAL_TIME ( 17, 40, 5.000000000000000000, #23 ) ;
#164 = DATE_AND_TIME ( #142, #254 ) ;
#165 = DIRECTION ( 'NONE',  ( 1.000000000000000000, 0.000000000000000000, 0.000000000000000000 ) ) ;
#166 = PERSON_AND_ORGANIZATION_ROLE ( 'creator' ) ;
#167 = CYLINDRICAL_SURFACE ( 'NONE', #93, 1.250000000000000000 ) ;
#168 = CARTESIAN_POINT ( 'NONE',  ( 0.000000000000000000, 0.000000000000000000, 0.000000000000000000 ) ) ;
#169 = AXIS2_PLACEMENT_3D ( 'NONE', #134, #181, #36 ) ;
#170 = DIRECTION ( 'NONE',  ( 1.000000000000000000, 0.000000000000000000, -0.000000000000000000 ) ) ;
#171 = ORIENTED_EDGE ( 'NONE', *, *, #173, .F. ) ;
#172 = ORIENTED_EDGE ( 'NONE', *, *, #13, .F. ) ;
#173 = EDGE_CURVE ( 'NONE', #192, #206, #90, .T. ) ;
#174 = APPROVAL ( #37, 'NEURÈENÝ' ) ;
#175 = APPLICATION_PROTOCOL_DEFINITION ( 'international standard', 'config_control_design', 1994, #177 ) ;
#176 = CALENDAR_DATE ( 2023, 13, 2 ) ;
#177 = APPLICATION_CONTEXT ( 'configuration controlled 3d designs of mechanical parts and assemblies' ) ;
#178 = CARTESIAN_POINT ( 'NONE',  ( 1.250000000000000000, 1.530808498934191571E-16, 2.000000000000000000 ) ) ;
#179 = DATE_AND_TIME ( #20, #162 ) ;
#180 = AXIS2_PLACEMENT_3D ( 'NONE', #41, #222, #27 ) ;
#181 = DIRECTION ( 'NONE',  ( 0.000000000000000000, 0.000000000000000000, 1.000000000000000000 ) ) ;
#182 = APPROVAL_STATUS ( 'not_yet_approved' ) ;
#183 = PERSON_AND_ORGANIZATION ( #72, #233 ) ;
#184 = LINE ( 'NONE', #204, #248 ) ;
#185 = AXIS2_PLACEMENT_3D ( 'NONE', #168, #240, #79 ) ;
#186 = DIRECTION ( 'NONE',  ( -0.000000000000000000, -0.000000000000000000, -1.000000000000000000 ) ) ;
#187 = UNCERTAINTY_MEASURE_WITH_UNIT (LENGTH_MEASURE( 1.000000000000000082E-05 ), #194, 'distance_accuracy_value', 'NONE');
#188 = PLANE ( 'NONE',  #11 ) ;
#189 = AXIS2_PLACEMENT_3D ( 'NONE', #242, #69, #47 ) ;
#190 = FACE_OUTER_BOUND ( 'NONE', #250, .T. ) ;
#191 = CC_DESIGN_PERSON_AND_ORGANIZATION_ASSIGNMENT ( #201, #166, ( #12 ) ) ;
#192 = VERTEX_POINT ( 'NONE', #252 ) ;
#193 = ORIENTED_EDGE ( 'NONE', *, *, #24, .T. ) ;
#194 =( LENGTH_UNIT ( ) NAMED_UNIT ( * ) SI_UNIT ( .MILLI., .METRE. ) );
#195 = VERTEX_POINT ( 'NONE', #231 ) ;
#196 = APPROVAL_DATE_TIME ( #179, #174 ) ;
#197 = AXIS2_PLACEMENT_3D ( 'NONE', #155, #156, #57 ) ;
#198 =( NAMED_UNIT ( * ) SI_UNIT ( $, .STERADIAN. ) SOLID_ANGLE_UNIT ( ) );
#199 = APPROVAL_ROLE ( '' ) ;
#200 = PLANE ( 'NONE',  #83 ) ;
#201 = PERSON_AND_ORGANIZATION ( #72, #233 ) ;
#202 = CARTESIAN_POINT ( 'NONE',  ( 0.000000000000000000, 0.000000000000000000, 250.0000000000000000 ) ) ;
#203 = FACE_OUTER_BOUND ( 'NONE', #50, .T. ) ;
#204 = CARTESIAN_POINT ( 'NONE',  ( 1.250000000000000000, 1.530808498934191571E-16, 250.0000000000000000 ) ) ;
#205 = CARTESIAN_POINT ( 'NONE',  ( -1.250000000000000000, 0.000000000000000000, 2.000000000000000000 ) ) ;
#206 = VERTEX_POINT ( 'NONE', #158 ) ;
#207 = ORIENTED_EDGE ( 'NONE', *, *, #101, .F. ) ;
#208 = ORIENTED_EDGE ( 'NONE', *, *, #24, .F. ) ;
#209 = APPLICATION_PROTOCOL_DEFINITION ( 'international standard', 'config_control_design', 1994, #58 ) ;
#210 = EDGE_CURVE ( 'NONE', #87, #8, #237, .T. ) ;
#211 = DIRECTION ( 'NONE',  ( 0.000000000000000000, 0.000000000000000000, 1.000000000000000000 ) ) ;
#212 = EDGE_LOOP ( 'NONE', ( #172, #208, #85, #247 ) ) ;
#213 = CC_DESIGN_PERSON_AND_ORGANIZATION_ASSIGNMENT ( #183, #221, ( #18 ) ) ;
#214 = DATE_TIME_ROLE ( 'creation_date' ) ;
#215 = PERSON_AND_ORGANIZATION_ROLE ( 'design_supplier' ) ;
#216 = DIRECTION ( 'NONE',  ( 0.000000000000000000, 0.000000000000000000, 1.000000000000000000 ) ) ;
#217 = ADVANCED_BREP_SHAPE_REPRESENTATION ( '3c85', ( #143, #169 ), #66 ) ;
#218 = FACE_OUTER_BOUND ( 'NONE', #31, .T. ) ;
#219 = CARTESIAN_POINT ( 'NONE',  ( 0.000000000000000000, 0.000000000000000000, 0.000000000000000000 ) ) ;
#220 = CC_DESIGN_DATE_AND_TIME_ASSIGNMENT ( #164, #45, ( #18 ) ) ;
#221 = PERSON_AND_ORGANIZATION_ROLE ( 'classification_officer' ) ;
#222 = DIRECTION ( 'NONE',  ( -0.000000000000000000, -0.000000000000000000, -1.000000000000000000 ) ) ;
#223 = EDGE_LOOP ( 'NONE', ( #244, #171, #226, #152 ) ) ;
#224 = CARTESIAN_POINT ( 'NONE',  ( 0.000000000000000000, 0.000000000000000000, 2.000000000000000000 ) ) ;
#225 = ORIENTED_EDGE ( 'NONE', *, *, #54, .T. ) ;
#226 = ORIENTED_EDGE ( 'NONE', *, *, #106, .T. ) ;
#227 = DIRECTION ( 'NONE',  ( -1.000000000000000000, 0.000000000000000000, 0.000000000000000000 ) ) ;
#228 = ORIENTED_EDGE ( 'NONE', *, *, #54, .F. ) ;
#229 = APPROVAL_STATUS ( 'not_yet_approved' ) ;
#230 = LINE ( 'NONE', #145, #116 ) ;
#231 = CARTESIAN_POINT ( 'NONE',  ( -2.500000000000000000, 0.000000000000000000, 0.000000000000000000 ) ) ;
#232 = PERSON_AND_ORGANIZATION ( #72, #233 ) ;
#233 = ORGANIZATION ( 'NEURÈENÝ', 'NEURÈENÝ', '' ) ;
#234 = DATE_AND_TIME ( #71, #148 ) ;
#235 = DATE_AND_TIME ( #97, #163 ) ;
#236 = CYLINDRICAL_SURFACE ( 'NONE', #144, 2.500000000000000000 ) ;
#237 = CIRCLE ( 'NONE', #17, 1.250000000000000000 ) ;
#238 = LINE ( 'NONE', #80, #153 ) ;
#239 = SECURITY_CLASSIFICATION_LEVEL ( 'unclassified' ) ;
#240 = DIRECTION ( 'NONE',  ( 0.000000000000000000, 0.000000000000000000, 1.000000000000000000 ) ) ;
#241 = CC_DESIGN_APPROVAL ( #174, ( #141 ) ) ;
#242 = CARTESIAN_POINT ( 'NONE',  ( 0.000000000000000000, 0.000000000000000000, 2.000000000000000000 ) ) ;
#243 = CARTESIAN_POINT ( 'NONE',  ( 2.500000000000000000, 3.061616997868383141E-16, 2.000000000000000000 ) ) ;
#244 = ORIENTED_EDGE ( 'NONE', *, *, #42, .F. ) ;
#245 = DIRECTION ( 'NONE',  ( -1.000000000000000000, 0.000000000000000000, 0.000000000000000000 ) ) ;
#246 = ORIENTED_EDGE ( 'NONE', *, *, #138, .F. ) ;
#247 = ORIENTED_EDGE ( 'NONE', *, *, #101, .T. ) ;
#248 = VECTOR ( 'NONE', #104, 1000.000000000000000 ) ;
#249 = APPROVAL_PERSON_ORGANIZATION ( #114, #174, #112 ) ;
#250 = EDGE_LOOP ( 'NONE', ( #193, #33 ) ) ;
#251 = EDGE_CURVE ( 'NONE', #151, #77, #124, .T. ) ;
#252 = CARTESIAN_POINT ( 'NONE',  ( -1.250000000000000000, 0.000000000000000000, 250.0000000000000000 ) ) ;
#253 = AXIS2_PLACEMENT_3D ( 'NONE', #219, #216, #165 ) ;
#254 = LOCAL_TIME ( 17, 40, 5.000000000000000000, #118 ) ;
#255 = CC_DESIGN_PERSON_AND_ORGANIZATION_ASSIGNMENT ( #132, #135, ( #123 ) ) ;
ENDSEC;
END-ISO-10303-21;
