ISO-10303-21;
HEADER;
FILE_DESCRIPTION (( 'STEP AP203' ),
    '1' );
FILE_NAME ('f73d.STEP',
    '2023-02-13T15:50:42',
    ( '' ),
    ( '' ),
    'SwSTEP 2.0',
    'SolidWorks 2019',
    '' );
FILE_SCHEMA (( 'CONFIG_CONTROL_DESIGN' ));
ENDSEC;

DATA;
#1 = EDGE_LOOP ( 'NONE', ( #163, #128 ) ) ;
#2 = VERTEX_POINT ( 'NONE', #91 ) ;
#3 = CYLINDRICAL_SURFACE ( 'NONE', #177, 5.000000000000000000 ) ;
#4 = CC_DESIGN_DATE_AND_TIME_ASSIGNMENT ( #118, #134, ( #44 ) ) ;
#5 = VECTOR ( 'NONE', #14, 1000.000000000000000 ) ;
#6 = AXIS2_PLACEMENT_3D ( 'NONE', #208, #225, #106 ) ;
#7 = APPROVAL_STATUS ( 'not_yet_approved' ) ;
#8 = ORIENTED_EDGE ( 'NONE', *, *, #97, .F. ) ;
#9 = PERSON_AND_ORGANIZATION ( #224, #147 ) ;
#10 = ORIENTED_EDGE ( 'NONE', *, *, #97, .T. ) ;
#11 = CC_DESIGN_PERSON_AND_ORGANIZATION_ASSIGNMENT ( #166, #183, ( #44 ) ) ;
#12 = CARTESIAN_POINT ( 'NONE',  ( 5.000000000000000000, 6.123233995736766282E-16, 0.000000000000000000 ) ) ;
#13 = FACE_OUTER_BOUND ( 'NONE', #171, .T. ) ;
#14 = DIRECTION ( 'NONE',  ( -0.000000000000000000, -0.000000000000000000, -1.000000000000000000 ) ) ;
#15 = AXIS2_PLACEMENT_3D ( 'NONE', #37, #112, #180 ) ;
#16 = CIRCLE ( 'NONE', #131, 5.000000000000000000 ) ;
#17 = EDGE_LOOP ( 'NONE', ( #120, #185, #10, #142 ) ) ;
#18 = DIRECTION ( 'NONE',  ( 1.000000000000000000, 0.000000000000000000, 0.000000000000000000 ) ) ;
#19 = FACE_OUTER_BOUND ( 'NONE', #223, .T. ) ;
#20 = APPLICATION_PROTOCOL_DEFINITION ( 'international standard', 'config_control_design', 1994, #119 ) ;
#21 = PERSON_AND_ORGANIZATION_ROLE ( 'design_supplier' ) ;
#22 = CIRCLE ( 'NONE', #15, 2.500000000000000000 ) ;
#23 = APPROVAL_STATUS ( 'not_yet_approved' ) ;
#24 = DIRECTION ( 'NONE',  ( 1.000000000000000000, 0.000000000000000000, 0.000000000000000000 ) ) ;
#25 = ORIENTED_EDGE ( 'NONE', *, *, #203, .T. ) ;
#26 = CLOSED_SHELL ( 'NONE', ( #30, #138, #150, #197, #157, #162, #146 ) ) ;
#27 = DIRECTION ( 'NONE',  ( 0.000000000000000000, 0.000000000000000000, 1.000000000000000000 ) ) ;
#28 = LOCAL_TIME ( 16, 50, 42.00000000000000000, #158 ) ;
#29 = ORIENTED_EDGE ( 'NONE', *, *, #181, .T. ) ;
#30 = ADVANCED_FACE ( 'NONE', ( #54 ), #179, .T. ) ;
#31 = FACE_OUTER_BOUND ( 'NONE', #17, .T. ) ;
#32 = PLANE ( 'NONE',  #154 ) ;
#33 = CYLINDRICAL_SURFACE ( 'NONE', #88, 5.000000000000000000 ) ;
#34 = AXIS2_PLACEMENT_3D ( 'NONE', #251, #51, #192 ) ;
#35 = CARTESIAN_POINT ( 'NONE',  ( 0.000000000000000000, 0.000000000000000000, 200.0000000000000000 ) ) ;
#36 = ORIENTED_EDGE ( 'NONE', *, *, #111, .T. ) ;
#37 = CARTESIAN_POINT ( 'NONE',  ( 0.000000000000000000, 0.000000000000000000, 200.0000000000000000 ) ) ;
#38 = CARTESIAN_POINT ( 'NONE',  ( 0.000000000000000000, 0.000000000000000000, 3.000000000000000000 ) ) ;
#39 = EDGE_CURVE ( 'NONE', #246, #63, #212, .T. ) ;
#40 = ORIENTED_EDGE ( 'NONE', *, *, #199, .T. ) ;
#41 = VECTOR ( 'NONE', #234, 1000.000000000000000 ) ;
#42 = APPROVAL_ROLE ( '' ) ;
#43 = APPROVAL_DATE_TIME ( #93, #151 ) ;
#44 = PRODUCT_DEFINITION ( 'NEZNÁMÝ', '', #167, #182 ) ;
#45 = PERSON_AND_ORGANIZATION ( #224, #147 ) ;
#46 = ORIENTED_EDGE ( 'NONE', *, *, #181, .F. ) ;
#47 = CARTESIAN_POINT ( 'NONE',  ( 0.000000000000000000, 0.000000000000000000, 3.000000000000000000 ) ) ;
#48 = LOCAL_TIME ( 16, 50, 42.00000000000000000, #122 ) ;
#49 = DIRECTION ( 'NONE',  ( -1.000000000000000000, 0.000000000000000000, 0.000000000000000000 ) ) ;
#50 = APPROVAL ( #23, 'NEURÈENÝ' ) ;
#51 = DIRECTION ( 'NONE',  ( 0.000000000000000000, 0.000000000000000000, 1.000000000000000000 ) ) ;
#52 = AXIS2_PLACEMENT_3D ( 'NONE', #104, #27, #84 ) ;
#53 = CC_DESIGN_DATE_AND_TIME_ASSIGNMENT ( #200, #94, ( #89 ) ) ;
#54 = FACE_OUTER_BOUND ( 'NONE', #165, .T. ) ;
#55 = CARTESIAN_POINT ( 'NONE',  ( 0.000000000000000000, 0.000000000000000000, 200.0000000000000000 ) ) ;
#56 = PERSON_AND_ORGANIZATION ( #224, #147 ) ;
#57 = AXIS2_PLACEMENT_3D ( 'NONE', #38, #193, #214 ) ;
#58 = LOCAL_TIME ( 16, 50, 42.00000000000000000, #62 ) ;
#59 = APPROVAL_DATE_TIME ( #198, #50 ) ;
#60 = APPROVAL_STATUS ( 'not_yet_approved' ) ;
#61 = EDGE_LOOP ( 'NONE', ( #221, #250, #215, #67 ) ) ;
#62 = COORDINATED_UNIVERSAL_TIME_OFFSET ( 1, 0, .AHEAD. ) ;
#63 = VERTEX_POINT ( 'NONE', #233 ) ;
#64 = APPROVAL_PERSON_ORGANIZATION ( #237, #50, #219 ) ;
#65 = PERSON_AND_ORGANIZATION ( #224, #147 ) ;
#66 = CARTESIAN_POINT ( 'NONE',  ( 0.000000000000000000, 0.000000000000000000, 200.0000000000000000 ) ) ;
#67 = ORIENTED_EDGE ( 'NONE', *, *, #175, .T. ) ;
#68 = CARTESIAN_POINT ( 'NONE',  ( 0.000000000000000000, 0.000000000000000000, 3.000000000000000000 ) ) ;
#69 = VERTEX_POINT ( 'NONE', #74 ) ;
#70 = FACE_OUTER_BOUND ( 'NONE', #61, .T. ) ;
#71 = DIRECTION ( 'NONE',  ( 0.000000000000000000, 0.000000000000000000, 1.000000000000000000 ) ) ;
#72 = DIRECTION ( 'NONE',  ( -0.000000000000000000, -0.000000000000000000, -1.000000000000000000 ) ) ;
#73 = CARTESIAN_POINT ( 'NONE',  ( -5.000000000000000000, 0.000000000000000000, 0.000000000000000000 ) ) ;
#74 = CARTESIAN_POINT ( 'NONE',  ( -5.000000000000000000, 0.000000000000000000, 3.000000000000000000 ) ) ;
#75 = CARTESIAN_POINT ( 'NONE',  ( 0.000000000000000000, 0.000000000000000000, 3.000000000000000000 ) ) ;
#76 = CIRCLE ( 'NONE', #205, 5.000000000000000000 ) ;
#77 = PERSON_AND_ORGANIZATION_ROLE ( 'classification_officer' ) ;
#78 = CALENDAR_DATE ( 2023, 13, 2 ) ;
#79 = CALENDAR_DATE ( 2023, 13, 2 ) ;
#80 = CALENDAR_DATE ( 2023, 13, 2 ) ;
#81 = DIRECTION ( 'NONE',  ( 0.000000000000000000, 0.000000000000000000, 1.000000000000000000 ) ) ;
#82 = DIRECTION ( 'NONE',  ( 1.000000000000000000, 0.000000000000000000, -0.000000000000000000 ) ) ;
#83 = VERTEX_POINT ( 'NONE', #73 ) ;
#84 = DIRECTION ( 'NONE',  ( 1.000000000000000000, 0.000000000000000000, -0.000000000000000000 ) ) ;
#85 = DIRECTION ( 'NONE',  ( 1.000000000000000000, 0.000000000000000000, 0.000000000000000000 ) ) ;
#86 = PLANE ( 'NONE',  #52 ) ;
#87 = CARTESIAN_POINT ( 'NONE',  ( 0.000000000000000000, 0.000000000000000000, 3.000000000000000000 ) ) ;
#88 = AXIS2_PLACEMENT_3D ( 'NONE', #47, #190, #168 ) ;
#89 = SECURITY_CLASSIFICATION ( '', '', #217 ) ;
#90 = DIRECTION ( 'NONE',  ( -0.000000000000000000, -0.000000000000000000, -1.000000000000000000 ) ) ;
#91 = CARTESIAN_POINT ( 'NONE',  ( 5.000000000000000000, 6.123233995736766282E-16, 3.000000000000000000 ) ) ;
#92 = EDGE_CURVE ( 'NONE', #99, #63, #130, .T. ) ;
#93 = DATE_AND_TIME ( #78, #48 ) ;
#94 = DATE_TIME_ROLE ( 'classification_date' ) ;
#95 = VECTOR ( 'NONE', #235, 1000.000000000000000 ) ;
#96 = ORIENTED_EDGE ( 'NONE', *, *, #175, .F. ) ;
#97 = EDGE_CURVE ( 'NONE', #139, #246, #152, .T. ) ;
#98 = SHAPE_DEFINITION_REPRESENTATION ( #127, #100 ) ;
#99 = VERTEX_POINT ( 'NONE', #211 ) ;
#100 = ADVANCED_BREP_SHAPE_REPRESENTATION ( 'f73d', ( #244, #209 ), #232 ) ;
#101 =( NAMED_UNIT ( * ) PLANE_ANGLE_UNIT ( ) SI_UNIT ( $, .RADIAN. ) );
#102 = FACE_BOUND ( 'NONE', #1, .T. ) ;
#103 = CC_DESIGN_PERSON_AND_ORGANIZATION_ASSIGNMENT ( #9, #222, ( #117 ) ) ;
#104 = CARTESIAN_POINT ( 'NONE',  ( 0.000000000000000000, 0.000000000000000000, 3.000000000000000000 ) ) ;
#105 = AXIS2_PLACEMENT_3D ( 'NONE', #55, #90, #148 ) ;
#106 = DIRECTION ( 'NONE',  ( 1.000000000000000000, 0.000000000000000000, 0.000000000000000000 ) ) ;
#107 = FACE_OUTER_BOUND ( 'NONE', #206, .T. ) ;
#108 = DIRECTION ( 'NONE',  ( 1.000000000000000000, 0.000000000000000000, 0.000000000000000000 ) ) ;
#109 = CARTESIAN_POINT ( 'NONE',  ( -2.500000000000000000, 0.000000000000000000, 200.0000000000000000 ) ) ;
#110 = AXIS2_PLACEMENT_3D ( 'NONE', #140, #144, #85 ) ;
#111 = EDGE_CURVE ( 'NONE', #63, #246, #236, .T. ) ;
#112 = DIRECTION ( 'NONE',  ( 0.000000000000000000, 0.000000000000000000, 1.000000000000000000 ) ) ;
#113 = CC_DESIGN_PERSON_AND_ORGANIZATION_ASSIGNMENT ( #56, #220, ( #167 ) ) ;
#114 = CC_DESIGN_APPROVAL ( #218, ( #167 ) ) ;
#115 = COORDINATED_UNIVERSAL_TIME_OFFSET ( 1, 0, .AHEAD. ) ;
#116 = DIRECTION ( 'NONE',  ( 0.000000000000000000, 0.000000000000000000, 1.000000000000000000 ) ) ;
#117 = PRODUCT ( 'f73d', 'f73d', '', ( #240 ) ) ;
#118 = DATE_AND_TIME ( #79, #245 ) ;
#119 = APPLICATION_CONTEXT ( 'configuration controlled 3d designs of mechanical parts and assemblies' ) ;
#120 = ORIENTED_EDGE ( 'NONE', *, *, #92, .F. ) ;
#121 = VECTOR ( 'NONE', #72, 1000.000000000000000 ) ;
#122 = COORDINATED_UNIVERSAL_TIME_OFFSET ( 1, 0, .AHEAD. ) ;
#123 = ORIENTED_EDGE ( 'NONE', *, *, #203, .F. ) ;
#124 = DATE_AND_TIME ( #164, #58 ) ;
#125 = ORIENTED_EDGE ( 'NONE', *, *, #92, .T. ) ;
#126 = ORIENTED_EDGE ( 'NONE', *, *, #153, .T. ) ;
#127 = PRODUCT_DEFINITION_SHAPE ( 'NONE', 'NONE',  #44 ) ;
#128 = ORIENTED_EDGE ( 'NONE', *, *, #111, .F. ) ;
#129 = CARTESIAN_POINT ( 'NONE',  ( 5.000000000000000000, 6.123233995736766282E-16, 3.000000000000000000 ) ) ;
#130 = LINE ( 'NONE', #149, #41 ) ;
#131 = AXIS2_PLACEMENT_3D ( 'NONE', #68, #227, #18 ) ;
#132 = EDGE_CURVE ( 'NONE', #139, #99, #22, .T. ) ;
#133 = DIRECTION ( 'NONE',  ( -1.000000000000000000, 0.000000000000000000, 0.000000000000000000 ) ) ;
#134 = DATE_TIME_ROLE ( 'creation_date' ) ;
#135 = COORDINATED_UNIVERSAL_TIME_OFFSET ( 1, 0, .AHEAD. ) ;
#136 = AXIS2_PLACEMENT_3D ( 'NONE', #66, #249, #49 ) ;
#137 = EDGE_LOOP ( 'NONE', ( #228, #29 ) ) ;
#138 = ADVANCED_FACE ( 'NONE', ( #19 ), #3, .T. ) ;
#139 = VERTEX_POINT ( 'NONE', #172 ) ;
#140 = CARTESIAN_POINT ( 'NONE',  ( 0.000000000000000000, 0.000000000000000000, 3.000000000000000000 ) ) ;
#141 = PRODUCT_RELATED_PRODUCT_CATEGORY ( 'detail', '', ( #117 ) ) ;
#142 = ORIENTED_EDGE ( 'NONE', *, *, #39, .T. ) ;
#143 = CC_DESIGN_PERSON_AND_ORGANIZATION_ASSIGNMENT ( #201, #77, ( #89 ) ) ;
#144 = DIRECTION ( 'NONE',  ( 0.000000000000000000, 0.000000000000000000, 1.000000000000000000 ) ) ;
#145 = FACE_OUTER_BOUND ( 'NONE', #137, .T. ) ;
#146 = ADVANCED_FACE ( 'NONE', ( #145 ), #231, .T. ) ;
#147 = ORGANIZATION ( 'NEURÈENÝ', 'NEURÈENÝ', '' ) ;
#148 = DIRECTION ( 'NONE',  ( -1.000000000000000000, 0.000000000000000000, 0.000000000000000000 ) ) ;
#149 = CARTESIAN_POINT ( 'NONE',  ( 2.500000000000000000, 3.061616997868383141E-16, 200.0000000000000000 ) ) ;
#150 = ADVANCED_FACE ( 'NONE', ( #70 ), #33, .T. ) ;
#151 = APPROVAL ( #7, 'NEURÈENÝ' ) ;
#152 = LINE ( 'NONE', #109, #95 ) ;
#153 = EDGE_CURVE ( 'NONE', #2, #173, #176, .T. ) ;
#154 = AXIS2_PLACEMENT_3D ( 'NONE', #253, #81, #248 ) ;
#155 = DIRECTION ( 'NONE',  ( -0.000000000000000000, -0.000000000000000000, -1.000000000000000000 ) ) ;
#156 = CIRCLE ( 'NONE', #110, 5.000000000000000000 ) ;
#157 = ADVANCED_FACE ( 'NONE', ( #107 ), #32, .F. ) ;
#158 = COORDINATED_UNIVERSAL_TIME_OFFSET ( 1, 0, .AHEAD. ) ;
#159 = CARTESIAN_POINT ( 'NONE',  ( 0.000000000000000000, 0.000000000000000000, 0.000000000000000000 ) ) ;
#160 = CC_DESIGN_APPROVAL ( #151, ( #89 ) ) ;
#161 = APPROVAL_PERSON_ORGANIZATION ( #195, #151, #42 ) ;
#162 = ADVANCED_FACE ( 'NONE', ( #31 ), #174, .T. ) ;
#163 = ORIENTED_EDGE ( 'NONE', *, *, #39, .F. ) ;
#164 = CALENDAR_DATE ( 2023, 13, 2 ) ;
#165 = EDGE_LOOP ( 'NONE', ( #46, #125, #36, #8 ) ) ;
#166 = PERSON_AND_ORGANIZATION ( #224, #147 ) ;
#167 = PRODUCT_DEFINITION_FORMATION_WITH_SPECIFIED_SOURCE ( 'LIBOVOLNÝ', '', #117, .NOT_KNOWN. ) ;
#168 = DIRECTION ( 'NONE',  ( -1.000000000000000000, 0.000000000000000000, 0.000000000000000000 ) ) ;
#169 =( NAMED_UNIT ( * ) SI_UNIT ( $, .STERADIAN. ) SOLID_ANGLE_UNIT ( ) );
#170 = CARTESIAN_POINT ( 'NONE',  ( 0.000000000000000000, 0.000000000000000000, 0.000000000000000000 ) ) ;
#171 = EDGE_LOOP ( 'NONE', ( #204, #40 ) ) ;
#172 = CARTESIAN_POINT ( 'NONE',  ( -2.500000000000000000, 0.000000000000000000, 200.0000000000000000 ) ) ;
#173 = VERTEX_POINT ( 'NONE', #12 ) ;
#174 = CYLINDRICAL_SURFACE ( 'NONE', #136, 2.500000000000000000 ) ;
#175 = EDGE_CURVE ( 'NONE', #83, #173, #76, .T. ) ;
#176 = LINE ( 'NONE', #129, #5 ) ;
#177 = AXIS2_PLACEMENT_3D ( 'NONE', #75, #155, #133 ) ;
#178 = APPROVAL_PERSON_ORGANIZATION ( #65, #218, #243 ) ;
#179 = CYLINDRICAL_SURFACE ( 'NONE', #105, 2.500000000000000000 ) ;
#180 = DIRECTION ( 'NONE',  ( 1.000000000000000000, 0.000000000000000000, 0.000000000000000000 ) ) ;
#181 = EDGE_CURVE ( 'NONE', #99, #139, #238, .T. ) ;
#182 = DESIGN_CONTEXT ( 'detailed design', #119, 'design' ) ;
#183 = PERSON_AND_ORGANIZATION_ROLE ( 'creator' ) ;
#184 = EDGE_CURVE ( 'NONE', #69, #83, #255, .T. ) ;
#185 = ORIENTED_EDGE ( 'NONE', *, *, #132, .F. ) ;
#186 = APPROVAL_DATE_TIME ( #124, #218 ) ;
#187 = AXIS2_PLACEMENT_3D ( 'NONE', #35, #188, #82 ) ;
#188 = DIRECTION ( 'NONE',  ( 0.000000000000000000, 0.000000000000000000, 1.000000000000000000 ) ) ;
#189 = CIRCLE ( 'NONE', #6, 5.000000000000000000 ) ;
#190 = DIRECTION ( 'NONE',  ( -0.000000000000000000, -0.000000000000000000, -1.000000000000000000 ) ) ;
#191 = EDGE_CURVE ( 'NONE', #69, #2, #16, .T. ) ;
#192 = DIRECTION ( 'NONE',  ( 1.000000000000000000, 0.000000000000000000, 0.000000000000000000 ) ) ;
#193 = DIRECTION ( 'NONE',  ( 0.000000000000000000, 0.000000000000000000, 1.000000000000000000 ) ) ;
#194 = DIRECTION ( 'NONE',  ( 0.000000000000000000, 0.000000000000000000, 1.000000000000000000 ) ) ;
#195 = PERSON_AND_ORGANIZATION ( #224, #147 ) ;
#196 = UNCERTAINTY_MEASURE_WITH_UNIT (LENGTH_MEASURE( 1.000000000000000082E-05 ), #210, 'distance_accuracy_value', 'NONE');
#197 = ADVANCED_FACE ( 'NONE', ( #102, #13 ), #86, .T. ) ;
#198 = DATE_AND_TIME ( #80, #28 ) ;
#199 = EDGE_CURVE ( 'NONE', #2, #69, #156, .T. ) ;
#200 = DATE_AND_TIME ( #216, #241 ) ;
#201 = PERSON_AND_ORGANIZATION ( #224, #147 ) ;
#202 = ORIENTED_EDGE ( 'NONE', *, *, #199, .F. ) ;
#203 = EDGE_CURVE ( 'NONE', #173, #83, #189, .T. ) ;
#204 = ORIENTED_EDGE ( 'NONE', *, *, #191, .T. ) ;
#205 = AXIS2_PLACEMENT_3D ( 'NONE', #170, #71, #229 ) ;
#206 = EDGE_LOOP ( 'NONE', ( #96, #123 ) ) ;
#207 = CARTESIAN_POINT ( 'NONE',  ( -5.000000000000000000, 0.000000000000000000, 3.000000000000000000 ) ) ;
#208 = CARTESIAN_POINT ( 'NONE',  ( 0.000000000000000000, 0.000000000000000000, 0.000000000000000000 ) ) ;
#209 = AXIS2_PLACEMENT_3D ( 'NONE', #159, #116, #24 ) ;
#210 =( LENGTH_UNIT ( ) NAMED_UNIT ( * ) SI_UNIT ( .MILLI., .METRE. ) );
#211 = CARTESIAN_POINT ( 'NONE',  ( 2.500000000000000000, 3.061616997868383141E-16, 200.0000000000000000 ) ) ;
#212 = CIRCLE ( 'NONE', #252, 2.500000000000000000 ) ;
#213 = CC_DESIGN_APPROVAL ( #50, ( #44 ) ) ;
#214 = DIRECTION ( 'NONE',  ( 1.000000000000000000, 0.000000000000000000, 0.000000000000000000 ) ) ;
#215 = ORIENTED_EDGE ( 'NONE', *, *, #184, .T. ) ;
#216 = CALENDAR_DATE ( 2023, 13, 2 ) ;
#217 = SECURITY_CLASSIFICATION_LEVEL ( 'unclassified' ) ;
#218 = APPROVAL ( #60, 'NEURÈENÝ' ) ;
#219 = APPROVAL_ROLE ( '' ) ;
#220 = PERSON_AND_ORGANIZATION_ROLE ( 'creator' ) ;
#221 = ORIENTED_EDGE ( 'NONE', *, *, #153, .F. ) ;
#222 = PERSON_AND_ORGANIZATION_ROLE ( 'design_owner' ) ;
#223 = EDGE_LOOP ( 'NONE', ( #202, #126, #25, #242 ) ) ;
#224 = PERSON ( 'NEURÈENÝ', 'NEURÈENÝ', 'NEURÈENÝ', ('NEURÈENÝ'), ('NEURÈENÝ'), ('NEURÈENÝ') ) ;
#225 = DIRECTION ( 'NONE',  ( 0.000000000000000000, 0.000000000000000000, 1.000000000000000000 ) ) ;
#226 = APPLICATION_CONTEXT ( 'configuration controlled 3d designs of mechanical parts and assemblies' ) ;
#227 = DIRECTION ( 'NONE',  ( 0.000000000000000000, 0.000000000000000000, 1.000000000000000000 ) ) ;
#228 = ORIENTED_EDGE ( 'NONE', *, *, #132, .T. ) ;
#229 = DIRECTION ( 'NONE',  ( 1.000000000000000000, 0.000000000000000000, 0.000000000000000000 ) ) ;
#230 = CARTESIAN_POINT ( 'NONE',  ( -2.500000000000000000, 0.000000000000000000, 3.000000000000000000 ) ) ;
#231 = PLANE ( 'NONE',  #187 ) ;
#232 =( GEOMETRIC_REPRESENTATION_CONTEXT ( 3 ) GLOBAL_UNCERTAINTY_ASSIGNED_CONTEXT ( ( #196 ) ) GLOBAL_UNIT_ASSIGNED_CONTEXT ( ( #210, #101, #169 ) ) REPRESENTATION_CONTEXT ( 'NONE', 'WORKASPACE' ) );
#233 = CARTESIAN_POINT ( 'NONE',  ( 2.500000000000000000, 3.061616997868383141E-16, 3.000000000000000000 ) ) ;
#234 = DIRECTION ( 'NONE',  ( -0.000000000000000000, -0.000000000000000000, -1.000000000000000000 ) ) ;
#235 = DIRECTION ( 'NONE',  ( -0.000000000000000000, -0.000000000000000000, -1.000000000000000000 ) ) ;
#236 = CIRCLE ( 'NONE', #57, 2.500000000000000000 ) ;
#237 = PERSON_AND_ORGANIZATION ( #224, #147 ) ;
#238 = CIRCLE ( 'NONE', #34, 2.500000000000000000 ) ;
#239 = CC_DESIGN_SECURITY_CLASSIFICATION ( #89, ( #167 ) ) ;
#240 = MECHANICAL_CONTEXT ( 'NONE', #226, 'mechanical' ) ;
#241 = LOCAL_TIME ( 16, 50, 42.00000000000000000, #115 ) ;
#242 = ORIENTED_EDGE ( 'NONE', *, *, #184, .F. ) ;
#243 = APPROVAL_ROLE ( '' ) ;
#244 = MANIFOLD_SOLID_BREP ( 'Pøidat vysunutím3', #26 ) ;
#245 = LOCAL_TIME ( 16, 50, 42.00000000000000000, #135 ) ;
#246 = VERTEX_POINT ( 'NONE', #230 ) ;
#247 = APPLICATION_PROTOCOL_DEFINITION ( 'international standard', 'config_control_design', 1994, #226 ) ;
#248 = DIRECTION ( 'NONE',  ( 1.000000000000000000, 0.000000000000000000, -0.000000000000000000 ) ) ;
#249 = DIRECTION ( 'NONE',  ( -0.000000000000000000, -0.000000000000000000, -1.000000000000000000 ) ) ;
#250 = ORIENTED_EDGE ( 'NONE', *, *, #191, .F. ) ;
#251 = CARTESIAN_POINT ( 'NONE',  ( 0.000000000000000000, 0.000000000000000000, 200.0000000000000000 ) ) ;
#252 = AXIS2_PLACEMENT_3D ( 'NONE', #87, #194, #108 ) ;
#253 = CARTESIAN_POINT ( 'NONE',  ( 0.000000000000000000, 0.000000000000000000, 0.000000000000000000 ) ) ;
#254 = CC_DESIGN_PERSON_AND_ORGANIZATION_ASSIGNMENT ( #45, #21, ( #167 ) ) ;
#255 = LINE ( 'NONE', #207, #121 ) ;
ENDSEC;
END-ISO-10303-21;
