ISO-10303-21;
HEADER;
FILE_DESCRIPTION (( 'STEP AP203' ),
    '1' );
FILE_NAME ('2d8d.STEP',
    '2023-02-13T16:55:05',
    ( '' ),
    ( '' ),
    'SwSTEP 2.0',
    'SolidWorks 2019',
    '' );
FILE_SCHEMA (( 'CONFIG_CONTROL_DESIGN' ));
ENDSEC;

DATA;
#1 = AXIS2_PLACEMENT_3D ( 'NONE', #107, #189, #15 ) ;
#2 = AXIS2_PLACEMENT_3D ( 'NONE', #211, #236, #239 ) ;
#3 = DIRECTION ( 'NONE',  ( 0.000000000000000000, 0.000000000000000000, 1.000000000000000000 ) ) ;
#4 = DIRECTION ( 'NONE',  ( -0.000000000000000000, -0.000000000000000000, -1.000000000000000000 ) ) ;
#5 = CYLINDRICAL_SURFACE ( 'NONE', #134, 2.000000000000000000 ) ;
#6 = ORIENTED_EDGE ( 'NONE', *, *, #168, .F. ) ;
#7 = CARTESIAN_POINT ( 'NONE',  ( 0.000000000000000000, 0.000000000000000000, 200.0000000000000000 ) ) ;
#8 = CALENDAR_DATE ( 2023, 13, 2 ) ;
#9 = ORIENTED_EDGE ( 'NONE', *, *, #58, .T. ) ;
#10 = APPROVAL ( #171, 'NEURÈENÝ' ) ;
#11 = VERTEX_POINT ( 'NONE', #47 ) ;
#12 = PERSON_AND_ORGANIZATION ( #202, #24 ) ;
#13 = CC_DESIGN_PERSON_AND_ORGANIZATION_ASSIGNMENT ( #82, #67, ( #100 ) ) ;
#14 = AXIS2_PLACEMENT_3D ( 'NONE', #17, #151, #93 ) ;
#15 = DIRECTION ( 'NONE',  ( 1.000000000000000000, 0.000000000000000000, -0.000000000000000000 ) ) ;
#16 = APPROVAL_ROLE ( '' ) ;
#17 = CARTESIAN_POINT ( 'NONE',  ( 0.000000000000000000, 0.000000000000000000, 0.000000000000000000 ) ) ;
#18 = DIRECTION ( 'NONE',  ( 0.000000000000000000, 0.000000000000000000, 1.000000000000000000 ) ) ;
#19 = DIRECTION ( 'NONE',  ( 1.000000000000000000, 0.000000000000000000, 0.000000000000000000 ) ) ;
#20 = DIRECTION ( 'NONE',  ( 0.000000000000000000, 0.000000000000000000, 1.000000000000000000 ) ) ;
#21 = CC_DESIGN_PERSON_AND_ORGANIZATION_ASSIGNMENT ( #12, #71, ( #69 ) ) ;
#22 = CYLINDRICAL_SURFACE ( 'NONE', #128, 2.000000000000000000 ) ;
#23 = CARTESIAN_POINT ( 'NONE',  ( 0.000000000000000000, 0.000000000000000000, 2.000000000000000000 ) ) ;
#24 = ORGANIZATION ( 'NEURÈENÝ', 'NEURÈENÝ', '' ) ;
#25 = EDGE_LOOP ( 'NONE', ( #220, #9, #70, #224 ) ) ;
#26 = VERTEX_POINT ( 'NONE', #126 ) ;
#27 = ADVANCED_BREP_SHAPE_REPRESENTATION ( '2d8d', ( #42, #154 ), #219 ) ;
#28 = EDGE_LOOP ( 'NONE', ( #166, #101, #207, #88 ) ) ;
#29 = APPLICATION_PROTOCOL_DEFINITION ( 'international standard', 'config_control_design', 1994, #92 ) ;
#30 = ORIENTED_EDGE ( 'NONE', *, *, #214, .F. ) ;
#31 = ADVANCED_FACE ( 'NONE', ( #205 ), #183, .T. ) ;
#32 = VECTOR ( 'NONE', #80, 1000.000000000000000 ) ;
#33 = CC_DESIGN_PERSON_AND_ORGANIZATION_ASSIGNMENT ( #54, #148, ( #249 ) ) ;
#34 = FACE_OUTER_BOUND ( 'NONE', #186, .T. ) ;
#35 = CARTESIAN_POINT ( 'NONE',  ( 0.000000000000000000, 0.000000000000000000, 2.000000000000000000 ) ) ;
#36 = APPROVAL_DATE_TIME ( #106, #10 ) ;
#37 = LOCAL_TIME ( 17, 55, 5.000000000000000000, #143 ) ;
#38 = PLANE ( 'NONE',  #188 ) ;
#39 = CARTESIAN_POINT ( 'NONE',  ( -1.000000000000000000, 0.000000000000000000, 2.000000000000000000 ) ) ;
#40 = FACE_OUTER_BOUND ( 'NONE', #146, .T. ) ;
#41 = DIRECTION ( 'NONE',  ( -0.000000000000000000, -0.000000000000000000, -1.000000000000000000 ) ) ;
#42 = MANIFOLD_SOLID_BREP ( 'Pøidat vysunutím3', #141 ) ;
#43 = CARTESIAN_POINT ( 'NONE',  ( 0.000000000000000000, 0.000000000000000000, 0.000000000000000000 ) ) ;
#44 = VECTOR ( 'NONE', #98, 1000.000000000000000 ) ;
#45 = DIRECTION ( 'NONE',  ( 1.000000000000000000, 0.000000000000000000, 0.000000000000000000 ) ) ;
#46 = ORIENTED_EDGE ( 'NONE', *, *, #147, .F. ) ;
#47 = CARTESIAN_POINT ( 'NONE',  ( 1.000000000000000000, 1.224646799147353207E-16, 2.000000000000000000 ) ) ;
#48 = EDGE_CURVE ( 'NONE', #161, #181, #53, .T. ) ;
#49 = ORIENTED_EDGE ( 'NONE', *, *, #89, .F. ) ;
#50 = EDGE_LOOP ( 'NONE', ( #46, #162, #127, #105 ) ) ;
#51 = PERSON_AND_ORGANIZATION ( #202, #24 ) ;
#52 = PRODUCT ( '2d8d', '2d8d', '', ( #125 ) ) ;
#53 = CIRCLE ( 'NONE', #14, 2.000000000000000000 ) ;
#54 = PERSON_AND_ORGANIZATION ( #202, #24 ) ;
#55 = ADVANCED_FACE ( 'NONE', ( #34 ), #229, .T. ) ;
#56 = CARTESIAN_POINT ( 'NONE',  ( 1.000000000000000000, 1.224646799147353207E-16, 200.0000000000000000 ) ) ;
#57 = CARTESIAN_POINT ( 'NONE',  ( 0.000000000000000000, 0.000000000000000000, 200.0000000000000000 ) ) ;
#58 = EDGE_CURVE ( 'NONE', #203, #181, #232, .T. ) ;
#59 = DIRECTION ( 'NONE',  ( -0.000000000000000000, -0.000000000000000000, -1.000000000000000000 ) ) ;
#60 = FACE_OUTER_BOUND ( 'NONE', #25, .T. ) ;
#61 = DIRECTION ( 'NONE',  ( 0.000000000000000000, 0.000000000000000000, 1.000000000000000000 ) ) ;
#62 = AXIS2_PLACEMENT_3D ( 'NONE', #23, #194, #138 ) ;
#63 = PERSON_AND_ORGANIZATION_ROLE ( 'design_owner' ) ;
#64 = ORIENTED_EDGE ( 'NONE', *, *, #158, .F. ) ;
#65 = ORIENTED_EDGE ( 'NONE', *, *, #158, .T. ) ;
#66 = CC_DESIGN_PERSON_AND_ORGANIZATION_ASSIGNMENT ( #173, #193, ( #249 ) ) ;
#67 = PERSON_AND_ORGANIZATION_ROLE ( 'creator' ) ;
#68 = EDGE_LOOP ( 'NONE', ( #6, #30, #221, #65 ) ) ;
#69 = SECURITY_CLASSIFICATION ( '', '', #145 ) ;
#70 = ORIENTED_EDGE ( 'NONE', *, *, #97, .T. ) ;
#71 = PERSON_AND_ORGANIZATION_ROLE ( 'classification_officer' ) ;
#72 = DATE_TIME_ROLE ( 'classification_date' ) ;
#73 = EDGE_CURVE ( 'NONE', #81, #203, #139, .T. ) ;
#74 = LINE ( 'NONE', #133, #32 ) ;
#75 = APPROVAL ( #104, 'NEURÈENÝ' ) ;
#76 = CARTESIAN_POINT ( 'NONE',  ( -1.000000000000000000, 0.000000000000000000, 200.0000000000000000 ) ) ;
#77 = VECTOR ( 'NONE', #129, 1000.000000000000000 ) ;
#78 = FACE_BOUND ( 'NONE', #120, .T. ) ;
#79 = APPLICATION_CONTEXT ( 'configuration controlled 3d designs of mechanical parts and assemblies' ) ;
#80 = DIRECTION ( 'NONE',  ( -0.000000000000000000, -0.000000000000000000, -1.000000000000000000 ) ) ;
#81 = VERTEX_POINT ( 'NONE', #251 ) ;
#82 = PERSON_AND_ORGANIZATION ( #202, #24 ) ;
#83 = EDGE_LOOP ( 'NONE', ( #200, #226 ) ) ;
#84 = DIRECTION ( 'NONE',  ( -0.000000000000000000, -0.000000000000000000, -1.000000000000000000 ) ) ;
#85 = CIRCLE ( 'NONE', #62, 1.000000000000000000 ) ;
#86 = ORIENTED_EDGE ( 'NONE', *, *, #237, .T. ) ;
#87 = AXIS2_PLACEMENT_3D ( 'NONE', #252, #41, #238 ) ;
#88 = ORIENTED_EDGE ( 'NONE', *, *, #48, .T. ) ;
#89 = EDGE_CURVE ( 'NONE', #11, #165, #222, .T. ) ;
#90 = CARTESIAN_POINT ( 'NONE',  ( 2.000000000000000000, 2.449293598294706414E-16, 2.000000000000000000 ) ) ;
#91 = APPROVAL_STATUS ( 'not_yet_approved' ) ;
#92 = APPLICATION_CONTEXT ( 'configuration controlled 3d designs of mechanical parts and assemblies' ) ;
#93 = DIRECTION ( 'NONE',  ( 1.000000000000000000, 0.000000000000000000, 0.000000000000000000 ) ) ;
#94 = FACE_OUTER_BOUND ( 'NONE', #28, .T. ) ;
#95 = LINE ( 'NONE', #76, #44 ) ;
#96 = CYLINDRICAL_SURFACE ( 'NONE', #87, 1.000000000000000000 ) ;
#97 = EDGE_CURVE ( 'NONE', #181, #161, #169, .T. ) ;
#98 = DIRECTION ( 'NONE',  ( -0.000000000000000000, -0.000000000000000000, -1.000000000000000000 ) ) ;
#99 = CC_DESIGN_APPROVAL ( #10, ( #69 ) ) ;
#100 = PRODUCT_DEFINITION ( 'NEZNÁMÝ', '', #249, #233 ) ;
#101 = ORIENTED_EDGE ( 'NONE', *, *, #73, .F. ) ;
#102 = PERSON_AND_ORGANIZATION ( #202, #24 ) ;
#103 = ORIENTED_EDGE ( 'NONE', *, *, #73, .T. ) ;
#104 = APPROVAL_STATUS ( 'not_yet_approved' ) ;
#105 = ORIENTED_EDGE ( 'NONE', *, *, #241, .F. ) ;
#106 = DATE_AND_TIME ( #152, #114 ) ;
#107 = CARTESIAN_POINT ( 'NONE',  ( 0.000000000000000000, 0.000000000000000000, 200.0000000000000000 ) ) ;
#108 = ADVANCED_FACE ( 'NONE', ( #94 ), #22, .T. ) ;
#109 = COORDINATED_UNIVERSAL_TIME_OFFSET ( 1, 0, .AHEAD. ) ;
#110 = DIRECTION ( 'NONE',  ( 0.000000000000000000, 0.000000000000000000, 1.000000000000000000 ) ) ;
#111 = CARTESIAN_POINT ( 'NONE',  ( 0.000000000000000000, 0.000000000000000000, 200.0000000000000000 ) ) ;
#112 = DIRECTION ( 'NONE',  ( -1.000000000000000000, 0.000000000000000000, 0.000000000000000000 ) ) ;
#113 = LINE ( 'NONE', #155, #135 ) ;
#114 = LOCAL_TIME ( 17, 55, 5.000000000000000000, #228 ) ;
#115 = DIRECTION ( 'NONE',  ( 0.000000000000000000, 0.000000000000000000, 1.000000000000000000 ) ) ;
#116 = AXIS2_PLACEMENT_3D ( 'NONE', #35, #110, #191 ) ;
#117 = EDGE_CURVE ( 'NONE', #81, #161, #74, .T. ) ;
#118 = DIRECTION ( 'NONE',  ( -1.000000000000000000, 0.000000000000000000, 0.000000000000000000 ) ) ;
#119 = CIRCLE ( 'NONE', #248, 1.000000000000000000 ) ;
#120 = EDGE_LOOP ( 'NONE', ( #64, #49 ) ) ;
#121 = CC_DESIGN_DATE_AND_TIME_ASSIGNMENT ( #182, #163, ( #100 ) ) ;
#122 = COORDINATED_UNIVERSAL_TIME_OFFSET ( 1, 0, .AHEAD. ) ;
#123 = ORIENTED_EDGE ( 'NONE', *, *, #147, .T. ) ;
#124 = AXIS2_PLACEMENT_3D ( 'NONE', #7, #84, #244 ) ;
#125 = MECHANICAL_CONTEXT ( 'NONE', #79, 'mechanical' ) ;
#126 = CARTESIAN_POINT ( 'NONE',  ( -1.000000000000000000, 0.000000000000000000, 200.0000000000000000 ) ) ;
#127 = ORIENTED_EDGE ( 'NONE', *, *, #89, .T. ) ;
#128 = AXIS2_PLACEMENT_3D ( 'NONE', #137, #4, #112 ) ;
#129 = DIRECTION ( 'NONE',  ( -0.000000000000000000, -0.000000000000000000, -1.000000000000000000 ) ) ;
#130 = CIRCLE ( 'NONE', #153, 2.000000000000000000 ) ;
#131 = COORDINATED_UNIVERSAL_TIME_OFFSET ( 1, 0, .AHEAD. ) ;
#132 = FACE_OUTER_BOUND ( 'NONE', #50, .T. ) ;
#133 = CARTESIAN_POINT ( 'NONE',  ( -2.000000000000000000, 0.000000000000000000, 2.000000000000000000 ) ) ;
#134 = AXIS2_PLACEMENT_3D ( 'NONE', #195, #59, #118 ) ;
#135 = VECTOR ( 'NONE', #157, 1000.000000000000000 ) ;
#136 = DIRECTION ( 'NONE',  ( 1.000000000000000000, 0.000000000000000000, -0.000000000000000000 ) ) ;
#137 = CARTESIAN_POINT ( 'NONE',  ( 0.000000000000000000, 0.000000000000000000, 2.000000000000000000 ) ) ;
#138 = DIRECTION ( 'NONE',  ( 1.000000000000000000, 0.000000000000000000, 0.000000000000000000 ) ) ;
#139 = CIRCLE ( 'NONE', #116, 2.000000000000000000 ) ;
#140 = ORIENTED_EDGE ( 'NONE', *, *, #214, .T. ) ;
#141 = CLOSED_SHELL ( 'NONE', ( #204, #208, #108, #253, #192, #31, #55 ) ) ;
#142 = AXIS2_PLACEMENT_3D ( 'NONE', #43, #20, #136 ) ;
#143 = COORDINATED_UNIVERSAL_TIME_OFFSET ( 1, 0, .AHEAD. ) ;
#144 = APPROVAL ( #91, 'NEURÈENÝ' ) ;
#145 = SECURITY_CLASSIFICATION_LEVEL ( 'unclassified' ) ;
#146 = EDGE_LOOP ( 'NONE', ( #103, #86 ) ) ;
#147 = EDGE_CURVE ( 'NONE', #246, #26, #177, .T. ) ;
#148 = PERSON_AND_ORGANIZATION_ROLE ( 'creator' ) ;
#149 = APPROVAL_PERSON_ORGANIZATION ( #51, #144, #16 ) ;
#150 = SHAPE_DEFINITION_REPRESENTATION ( #254, #27 ) ;
#151 = DIRECTION ( 'NONE',  ( 0.000000000000000000, 0.000000000000000000, 1.000000000000000000 ) ) ;
#152 = CALENDAR_DATE ( 2023, 13, 2 ) ;
#153 = AXIS2_PLACEMENT_3D ( 'NONE', #199, #18, #19 ) ;
#154 = AXIS2_PLACEMENT_3D ( 'NONE', #206, #185, #45 ) ;
#155 = CARTESIAN_POINT ( 'NONE',  ( 1.000000000000000000, 1.224646799147353207E-16, 200.0000000000000000 ) ) ;
#156 = AXIS2_PLACEMENT_3D ( 'NONE', #215, #255, #174 ) ;
#157 = DIRECTION ( 'NONE',  ( -0.000000000000000000, -0.000000000000000000, -1.000000000000000000 ) ) ;
#158 = EDGE_CURVE ( 'NONE', #165, #11, #85, .T. ) ;
#159 = DIRECTION ( 'NONE',  ( 1.000000000000000000, 0.000000000000000000, -0.000000000000000000 ) ) ;
#160 = LOCAL_TIME ( 17, 55, 5.000000000000000000, #122 ) ;
#161 = VERTEX_POINT ( 'NONE', #217 ) ;
#162 = ORIENTED_EDGE ( 'NONE', *, *, #168, .T. ) ;
#163 = DATE_TIME_ROLE ( 'creation_date' ) ;
#164 = APPROVAL_DATE_TIME ( #201, #75 ) ;
#165 = VERTEX_POINT ( 'NONE', #39 ) ;
#166 = ORIENTED_EDGE ( 'NONE', *, *, #58, .F. ) ;
#167 = APPROVAL_PERSON_ORGANIZATION ( #102, #75, #218 ) ;
#168 = EDGE_CURVE ( 'NONE', #246, #11, #113, .T. ) ;
#169 = CIRCLE ( 'NONE', #156, 2.000000000000000000 ) ;
#170 = CALENDAR_DATE ( 2023, 13, 2 ) ;
#171 = APPROVAL_STATUS ( 'not_yet_approved' ) ;
#172 = LOCAL_TIME ( 17, 55, 5.000000000000000000, #109 ) ;
#173 = PERSON_AND_ORGANIZATION ( #202, #24 ) ;
#174 = DIRECTION ( 'NONE',  ( 1.000000000000000000, 0.000000000000000000, 0.000000000000000000 ) ) ;
#175 = CC_DESIGN_APPROVAL ( #144, ( #249 ) ) ;
#176 = DIRECTION ( 'NONE',  ( 1.000000000000000000, 0.000000000000000000, 0.000000000000000000 ) ) ;
#177 = CIRCLE ( 'NONE', #197, 1.000000000000000000 ) ;
#178 = CARTESIAN_POINT ( 'NONE',  ( 0.000000000000000000, 0.000000000000000000, 2.000000000000000000 ) ) ;
#179 =( LENGTH_UNIT ( ) NAMED_UNIT ( * ) SI_UNIT ( .MILLI., .METRE. ) );
#180 = APPLICATION_PROTOCOL_DEFINITION ( 'international standard', 'config_control_design', 1994, #79 ) ;
#181 = VERTEX_POINT ( 'NONE', #242 ) ;
#182 = DATE_AND_TIME ( #223, #37 ) ;
#183 = CYLINDRICAL_SURFACE ( 'NONE', #124, 1.000000000000000000 ) ;
#184 = PRODUCT_RELATED_PRODUCT_CATEGORY ( 'detail', '', ( #52 ) ) ;
#185 = DIRECTION ( 'NONE',  ( 0.000000000000000000, 0.000000000000000000, 1.000000000000000000 ) ) ;
#186 = EDGE_LOOP ( 'NONE', ( #140, #123 ) ) ;
#187 =( NAMED_UNIT ( * ) SI_UNIT ( $, .STERADIAN. ) SOLID_ANGLE_UNIT ( ) );
#188 = AXIS2_PLACEMENT_3D ( 'NONE', #178, #3, #159 ) ;
#189 = DIRECTION ( 'NONE',  ( 0.000000000000000000, 0.000000000000000000, 1.000000000000000000 ) ) ;
#190 = APPROVAL_DATE_TIME ( #234, #144 ) ;
#191 = DIRECTION ( 'NONE',  ( 1.000000000000000000, 0.000000000000000000, 0.000000000000000000 ) ) ;
#192 = ADVANCED_FACE ( 'NONE', ( #216 ), #196, .F. ) ;
#193 = PERSON_AND_ORGANIZATION_ROLE ( 'design_supplier' ) ;
#194 = DIRECTION ( 'NONE',  ( 0.000000000000000000, 0.000000000000000000, 1.000000000000000000 ) ) ;
#195 = CARTESIAN_POINT ( 'NONE',  ( 0.000000000000000000, 0.000000000000000000, 2.000000000000000000 ) ) ;
#196 = PLANE ( 'NONE',  #142 ) ;
#197 = AXIS2_PLACEMENT_3D ( 'NONE', #111, #61, #198 ) ;
#198 = DIRECTION ( 'NONE',  ( 1.000000000000000000, 0.000000000000000000, 0.000000000000000000 ) ) ;
#199 = CARTESIAN_POINT ( 'NONE',  ( 0.000000000000000000, 0.000000000000000000, 2.000000000000000000 ) ) ;
#200 = ORIENTED_EDGE ( 'NONE', *, *, #48, .F. ) ;
#201 = DATE_AND_TIME ( #8, #160 ) ;
#202 = PERSON ( 'NEURÈENÝ', 'NEURÈENÝ', 'NEURÈENÝ', ('NEURÈENÝ'), ('NEURÈENÝ'), ('NEURÈENÝ') ) ;
#203 = VERTEX_POINT ( 'NONE', #235 ) ;
#204 = ADVANCED_FACE ( 'NONE', ( #132 ), #96, .T. ) ;
#205 = FACE_OUTER_BOUND ( 'NONE', #68, .T. ) ;
#206 = CARTESIAN_POINT ( 'NONE',  ( 0.000000000000000000, 0.000000000000000000, 0.000000000000000000 ) ) ;
#207 = ORIENTED_EDGE ( 'NONE', *, *, #117, .T. ) ;
#208 = ADVANCED_FACE ( 'NONE', ( #60 ), #5, .T. ) ;
#209 = PERSON_AND_ORGANIZATION ( #202, #24 ) ;
#210 = DATE_AND_TIME ( #250, #212 ) ;
#211 = CARTESIAN_POINT ( 'NONE',  ( 0.000000000000000000, 0.000000000000000000, 2.000000000000000000 ) ) ;
#212 = LOCAL_TIME ( 17, 55, 5.000000000000000000, #131 ) ;
#213 =( NAMED_UNIT ( * ) PLANE_ANGLE_UNIT ( ) SI_UNIT ( $, .RADIAN. ) );
#214 = EDGE_CURVE ( 'NONE', #26, #246, #119, .T. ) ;
#215 = CARTESIAN_POINT ( 'NONE',  ( 0.000000000000000000, 0.000000000000000000, 0.000000000000000000 ) ) ;
#216 = FACE_OUTER_BOUND ( 'NONE', #83, .T. ) ;
#217 = CARTESIAN_POINT ( 'NONE',  ( -2.000000000000000000, 0.000000000000000000, 0.000000000000000000 ) ) ;
#218 = APPROVAL_ROLE ( '' ) ;
#219 =( GEOMETRIC_REPRESENTATION_CONTEXT ( 3 ) GLOBAL_UNCERTAINTY_ASSIGNED_CONTEXT ( ( #245 ) ) GLOBAL_UNIT_ASSIGNED_CONTEXT ( ( #179, #213, #187 ) ) REPRESENTATION_CONTEXT ( 'NONE', 'WORKASPACE' ) );
#220 = ORIENTED_EDGE ( 'NONE', *, *, #237, .F. ) ;
#221 = ORIENTED_EDGE ( 'NONE', *, *, #241, .T. ) ;
#222 = CIRCLE ( 'NONE', #2, 1.000000000000000000 ) ;
#223 = CALENDAR_DATE ( 2023, 13, 2 ) ;
#224 = ORIENTED_EDGE ( 'NONE', *, *, #117, .F. ) ;
#225 = APPROVAL_ROLE ( '' ) ;
#226 = ORIENTED_EDGE ( 'NONE', *, *, #97, .F. ) ;
#227 = CC_DESIGN_PERSON_AND_ORGANIZATION_ASSIGNMENT ( #243, #63, ( #52 ) ) ;
#228 = COORDINATED_UNIVERSAL_TIME_OFFSET ( 1, 0, .AHEAD. ) ;
#229 = PLANE ( 'NONE',  #1 ) ;
#230 = APPROVAL_PERSON_ORGANIZATION ( #209, #10, #225 ) ;
#231 = CC_DESIGN_DATE_AND_TIME_ASSIGNMENT ( #210, #72, ( #69 ) ) ;
#232 = LINE ( 'NONE', #90, #77 ) ;
#233 = DESIGN_CONTEXT ( 'detailed design', #92, 'design' ) ;
#234 = DATE_AND_TIME ( #170, #172 ) ;
#235 = CARTESIAN_POINT ( 'NONE',  ( 2.000000000000000000, 2.449293598294706414E-16, 2.000000000000000000 ) ) ;
#236 = DIRECTION ( 'NONE',  ( 0.000000000000000000, 0.000000000000000000, 1.000000000000000000 ) ) ;
#237 = EDGE_CURVE ( 'NONE', #203, #81, #130, .T. ) ;
#238 = DIRECTION ( 'NONE',  ( -1.000000000000000000, 0.000000000000000000, 0.000000000000000000 ) ) ;
#239 = DIRECTION ( 'NONE',  ( 1.000000000000000000, 0.000000000000000000, 0.000000000000000000 ) ) ;
#240 = CC_DESIGN_APPROVAL ( #75, ( #100 ) ) ;
#241 = EDGE_CURVE ( 'NONE', #26, #165, #95, .T. ) ;
#242 = CARTESIAN_POINT ( 'NONE',  ( 2.000000000000000000, 2.449293598294706414E-16, 0.000000000000000000 ) ) ;
#243 = PERSON_AND_ORGANIZATION ( #202, #24 ) ;
#244 = DIRECTION ( 'NONE',  ( -1.000000000000000000, 0.000000000000000000, 0.000000000000000000 ) ) ;
#245 = UNCERTAINTY_MEASURE_WITH_UNIT (LENGTH_MEASURE( 1.000000000000000082E-05 ), #179, 'distance_accuracy_value', 'NONE');
#246 = VERTEX_POINT ( 'NONE', #56 ) ;
#247 = CC_DESIGN_SECURITY_CLASSIFICATION ( #69, ( #249 ) ) ;
#248 = AXIS2_PLACEMENT_3D ( 'NONE', #57, #115, #176 ) ;
#249 = PRODUCT_DEFINITION_FORMATION_WITH_SPECIFIED_SOURCE ( 'LIBOVOLNÝ', '', #52, .NOT_KNOWN. ) ;
#250 = CALENDAR_DATE ( 2023, 13, 2 ) ;
#251 = CARTESIAN_POINT ( 'NONE',  ( -2.000000000000000000, 0.000000000000000000, 2.000000000000000000 ) ) ;
#252 = CARTESIAN_POINT ( 'NONE',  ( 0.000000000000000000, 0.000000000000000000, 200.0000000000000000 ) ) ;
#253 = ADVANCED_FACE ( 'NONE', ( #78, #40 ), #38, .T. ) ;
#254 = PRODUCT_DEFINITION_SHAPE ( 'NONE', 'NONE',  #100 ) ;
#255 = DIRECTION ( 'NONE',  ( 0.000000000000000000, 0.000000000000000000, 1.000000000000000000 ) ) ;
ENDSEC;
END-ISO-10303-21;
