ISO-10303-21;
HEADER;
FILE_DESCRIPTION (( 'STEP AP203' ),
    '1' );
FILE_NAME ('14c4.STEP',
    '2022-07-07T17:47:13',
    ( '' ),
    ( '' ),
    'SwSTEP 2.0',
    'SolidWorks 2019',
    '' );
FILE_SCHEMA (( 'CONFIG_CONTROL_DESIGN' ));
ENDSEC;

DATA;
#1 = PRODUCT_RELATED_PRODUCT_CATEGORY ( 'detail', '', ( #196 ) ) ;
#2 = CIRCLE ( 'NONE', #204, 5.000000000000000000 ) ;
#3 = PERSON_AND_ORGANIZATION ( #199, #107 ) ;
#4 = APPROVAL_PERSON_ORGANIZATION ( #114, #85, #65 ) ;
#5 = APPROVAL_STATUS ( 'not_yet_approved' ) ;
#6 = DATE_AND_TIME ( #87, #166 ) ;
#7 = EDGE_LOOP ( 'NONE', ( #206, #101, #64, #134 ) ) ;
#8 = ORIENTED_EDGE ( 'NONE', *, *, #37, .T. ) ;
#9 = VERTEX_POINT ( 'NONE', #179 ) ;
#10 = DIRECTION ( 'NONE',  ( 1.000000000000000000, 0.000000000000000000, -0.000000000000000000 ) ) ;
#11 = EDGE_LOOP ( 'NONE', ( #214, #157 ) ) ;
#12 = MECHANICAL_CONTEXT ( 'NONE', #145, 'mechanical' ) ;
#13 = DIRECTION ( 'NONE',  ( -0.000000000000000000, -0.000000000000000000, -1.000000000000000000 ) ) ;
#14 = CARTESIAN_POINT ( 'NONE',  ( 5.000000000000000000, 6.123233995736766282E-16, 3.000000000000000000 ) ) ;
#15 = APPLICATION_PROTOCOL_DEFINITION ( 'international standard', 'config_control_design', 1994, #145 ) ;
#16 = CARTESIAN_POINT ( 'NONE',  ( 0.000000000000000000, 0.000000000000000000, 0.000000000000000000 ) ) ;
#17 = LINE ( 'NONE', #32, #201 ) ;
#18 = ORIENTED_EDGE ( 'NONE', *, *, #41, .F. ) ;
#19 = DIRECTION ( 'NONE',  ( 1.000000000000000000, 0.000000000000000000, 0.000000000000000000 ) ) ;
#20 = AXIS2_PLACEMENT_3D ( 'NONE', #68, #119, #10 ) ;
#21 = AXIS2_PLACEMENT_3D ( 'NONE', #163, #50, #233 ) ;
#22 = EDGE_CURVE ( 'NONE', #38, #142, #251, .T. ) ;
#23 = LOCAL_TIME ( 19, 47, 13.00000000000000000, #48 ) ;
#24 = ADVANCED_FACE ( 'NONE', ( #98 ), #241, .T. ) ;
#25 = ORIENTED_EDGE ( 'NONE', *, *, #147, .T. ) ;
#26 = CC_DESIGN_PERSON_AND_ORGANIZATION_ASSIGNMENT ( #240, #156, ( #245 ) ) ;
#27 = DIRECTION ( 'NONE',  ( 0.000000000000000000, 0.000000000000000000, 1.000000000000000000 ) ) ;
#28 = DATE_TIME_ROLE ( 'classification_date' ) ;
#29 = CARTESIAN_POINT ( 'NONE',  ( 0.000000000000000000, 0.000000000000000000, 203.0000000000000000 ) ) ;
#30 = DIRECTION ( 'NONE',  ( 0.000000000000000000, 0.000000000000000000, 1.000000000000000000 ) ) ;
#31 = DIRECTION ( 'NONE',  ( -0.000000000000000000, -0.000000000000000000, -1.000000000000000000 ) ) ;
#32 = CARTESIAN_POINT ( 'NONE',  ( -5.000000000000000000, 0.000000000000000000, 3.000000000000000000 ) ) ;
#33 = UNCERTAINTY_MEASURE_WITH_UNIT (LENGTH_MEASURE( 1.000000000000000082E-05 ), #116, 'distance_accuracy_value', 'NONE');
#34 = APPLICATION_PROTOCOL_DEFINITION ( 'international standard', 'config_control_design', 1994, #154 ) ;
#35 = EDGE_LOOP ( 'NONE', ( #49, #207 ) ) ;
#36 = DIRECTION ( 'NONE',  ( 1.000000000000000000, 0.000000000000000000, 0.000000000000000000 ) ) ;
#37 = EDGE_CURVE ( 'NONE', #155, #140, #249, .T. ) ;
#38 = VERTEX_POINT ( 'NONE', #55 ) ;
#39 = DIRECTION ( 'NONE',  ( 0.000000000000000000, 0.000000000000000000, 1.000000000000000000 ) ) ;
#40 = FACE_OUTER_BOUND ( 'NONE', #122, .T. ) ;
#41 = EDGE_CURVE ( 'NONE', #67, #165, #222, .T. ) ;
#42 = EDGE_CURVE ( 'NONE', #9, #243, #219, .T. ) ;
#43 = ADVANCED_BREP_SHAPE_REPRESENTATION ( '14c4', ( #152, #225 ), #81 ) ;
#44 = CC_DESIGN_DATE_AND_TIME_ASSIGNMENT ( #52, #88, ( #209 ) ) ;
#45 = PERSON_AND_ORGANIZATION ( #199, #107 ) ;
#46 = EDGE_LOOP ( 'NONE', ( #112, #126 ) ) ;
#47 = CARTESIAN_POINT ( 'NONE',  ( 0.000000000000000000, 0.000000000000000000, 0.000000000000000000 ) ) ;
#48 = COORDINATED_UNIVERSAL_TIME_OFFSET ( 1, 0, .AHEAD. ) ;
#49 = ORIENTED_EDGE ( 'NONE', *, *, #147, .F. ) ;
#50 = DIRECTION ( 'NONE',  ( -0.000000000000000000, -0.000000000000000000, -1.000000000000000000 ) ) ;
#51 = ADVANCED_FACE ( 'NONE', ( #75 ), #73, .T. ) ;
#52 = DATE_AND_TIME ( #229, #23 ) ;
#53 = CARTESIAN_POINT ( 'NONE',  ( 5.000000000000000000, 6.123233995736766282E-16, 3.000000000000000000 ) ) ;
#54 = CYLINDRICAL_SURFACE ( 'NONE', #21, 5.000000000000000000 ) ;
#55 = CARTESIAN_POINT ( 'NONE',  ( 2.500000000000000000, 3.061616997868383141E-16, 203.0000000000000000 ) ) ;
#56 = CARTESIAN_POINT ( 'NONE',  ( -2.500000000000000000, 0.000000000000000000, 3.000000000000000000 ) ) ;
#57 = FACE_OUTER_BOUND ( 'NONE', #7, .T. ) ;
#58 = AXIS2_PLACEMENT_3D ( 'NONE', #231, #143, #198 ) ;
#59 = AXIS2_PLACEMENT_3D ( 'NONE', #99, #76, #190 ) ;
#60 = CC_DESIGN_APPROVAL ( #105, ( #183 ) ) ;
#61 = EDGE_CURVE ( 'NONE', #165, #9, #191, .T. ) ;
#62 = PERSON_AND_ORGANIZATION ( #199, #107 ) ;
#63 = SECURITY_CLASSIFICATION_LEVEL ( 'unclassified' ) ;
#64 = ORIENTED_EDGE ( 'NONE', *, *, #42, .T. ) ;
#65 = APPROVAL_ROLE ( '' ) ;
#66 = PERSON_AND_ORGANIZATION_ROLE ( 'creator' ) ;
#67 = VERTEX_POINT ( 'NONE', #158 ) ;
#68 = CARTESIAN_POINT ( 'NONE',  ( 0.000000000000000000, 0.000000000000000000, 0.000000000000000000 ) ) ;
#69 = LOCAL_TIME ( 19, 47, 13.00000000000000000, #188 ) ;
#70 = CALENDAR_DATE ( 2022, 7, 7 ) ;
#71 = CC_DESIGN_PERSON_AND_ORGANIZATION_ASSIGNMENT ( #127, #226, ( #196 ) ) ;
#72 = PERSON_AND_ORGANIZATION ( #199, #107 ) ;
#73 = CYLINDRICAL_SURFACE ( 'NONE', #148, 5.000000000000000000 ) ;
#74 = DIRECTION ( 'NONE',  ( -0.000000000000000000, -0.000000000000000000, -1.000000000000000000 ) ) ;
#75 = FACE_OUTER_BOUND ( 'NONE', #160, .T. ) ;
#76 = DIRECTION ( 'NONE',  ( 0.000000000000000000, 0.000000000000000000, 1.000000000000000000 ) ) ;
#77 = CYLINDRICAL_SURFACE ( 'NONE', #86, 2.500000000000000000 ) ;
#78 = AXIS2_PLACEMENT_3D ( 'NONE', #192, #195, #244 ) ;
#79 = ORIENTED_EDGE ( 'NONE', *, *, #22, .T. ) ;
#80 = VECTOR ( 'NONE', #232, 1000.000000000000000 ) ;
#81 =( GEOMETRIC_REPRESENTATION_CONTEXT ( 3 ) GLOBAL_UNCERTAINTY_ASSIGNED_CONTEXT ( ( #33 ) ) GLOBAL_UNIT_ASSIGNED_CONTEXT ( ( #116, #139, #109 ) ) REPRESENTATION_CONTEXT ( 'NONE', 'WORKASPACE' ) );
#82 = CC_DESIGN_DATE_AND_TIME_ASSIGNMENT ( #239, #28, ( #245 ) ) ;
#83 = VECTOR ( 'NONE', #13, 1000.000000000000000 ) ;
#84 = EDGE_CURVE ( 'NONE', #67, #243, #17, .T. ) ;
#85 = APPROVAL ( #5, 'NEURÈENÝ' ) ;
#86 = AXIS2_PLACEMENT_3D ( 'NONE', #178, #74, #91 ) ;
#87 = CALENDAR_DATE ( 2022, 7, 7 ) ;
#88 = DATE_TIME_ROLE ( 'creation_date' ) ;
#89 = ORIENTED_EDGE ( 'NONE', *, *, #242, .F. ) ;
#90 = DIRECTION ( 'NONE',  ( -1.000000000000000000, 0.000000000000000000, 0.000000000000000000 ) ) ;
#91 = DIRECTION ( 'NONE',  ( -1.000000000000000000, 0.000000000000000000, 0.000000000000000000 ) ) ;
#92 = ADVANCED_FACE ( 'NONE', ( #40 ), #77, .T. ) ;
#93 = APPROVAL_DATE_TIME ( #110, #85 ) ;
#94 = APPROVAL_ROLE ( '' ) ;
#95 = ORIENTED_EDGE ( 'NONE', *, *, #167, .F. ) ;
#96 = DIRECTION ( 'NONE',  ( 0.000000000000000000, 0.000000000000000000, 1.000000000000000000 ) ) ;
#97 = PERSON_AND_ORGANIZATION ( #199, #107 ) ;
#98 = FACE_OUTER_BOUND ( 'NONE', #131, .T. ) ;
#99 = CARTESIAN_POINT ( 'NONE',  ( 0.000000000000000000, 0.000000000000000000, 203.0000000000000000 ) ) ;
#100 = EDGE_CURVE ( 'NONE', #165, #67, #2, .T. ) ;
#101 = ORIENTED_EDGE ( 'NONE', *, *, #61, .T. ) ;
#102 = CARTESIAN_POINT ( 'NONE',  ( 0.000000000000000000, 0.000000000000000000, 3.000000000000000000 ) ) ;
#103 = CIRCLE ( 'NONE', #128, 2.500000000000000000 ) ;
#104 = AXIS2_PLACEMENT_3D ( 'NONE', #217, #96, #208 ) ;
#105 = APPROVAL ( #205, 'NEURÈENÝ' ) ;
#106 = VECTOR ( 'NONE', #120, 1000.000000000000000 ) ;
#107 = ORGANIZATION ( 'NEURÈENÝ', 'NEURÈENÝ', '' ) ;
#108 = CC_DESIGN_PERSON_AND_ORGANIZATION_ASSIGNMENT ( #45, #66, ( #183 ) ) ;
#109 =( NAMED_UNIT ( * ) SI_UNIT ( $, .STERADIAN. ) SOLID_ANGLE_UNIT ( ) );
#110 = DATE_AND_TIME ( #70, #169 ) ;
#111 = CIRCLE ( 'NONE', #78, 2.500000000000000000 ) ;
#112 = ORIENTED_EDGE ( 'NONE', *, *, #41, .T. ) ;
#113 = EDGE_CURVE ( 'NONE', #38, #155, #103, .T. ) ;
#114 = PERSON_AND_ORGANIZATION ( #199, #107 ) ;
#115 = ORIENTED_EDGE ( 'NONE', *, *, #113, .F. ) ;
#116 =( LENGTH_UNIT ( ) NAMED_UNIT ( * ) SI_UNIT ( .MILLI., .METRE. ) );
#117 = APPROVAL_DATE_TIME ( #210, #121 ) ;
#118 = ORIENTED_EDGE ( 'NONE', *, *, #61, .F. ) ;
#119 = DIRECTION ( 'NONE',  ( 0.000000000000000000, 0.000000000000000000, 1.000000000000000000 ) ) ;
#120 = DIRECTION ( 'NONE',  ( -0.000000000000000000, -0.000000000000000000, -1.000000000000000000 ) ) ;
#121 = APPROVAL ( #185, 'NEURÈENÝ' ) ;
#122 = EDGE_LOOP ( 'NONE', ( #115, #79, #227, #151 ) ) ;
#123 = FACE_OUTER_BOUND ( 'NONE', #35, .T. ) ;
#124 = AXIS2_PLACEMENT_3D ( 'NONE', #16, #211, #216 ) ;
#125 = ADVANCED_FACE ( 'NONE', ( #123 ), #175, .F. ) ;
#126 = ORIENTED_EDGE ( 'NONE', *, *, #100, .T. ) ;
#127 = PERSON_AND_ORGANIZATION ( #199, #107 ) ;
#128 = AXIS2_PLACEMENT_3D ( 'NONE', #252, #39, #19 ) ;
#129 = SHAPE_DEFINITION_REPRESENTATION ( #200, #43 ) ;
#130 = CC_DESIGN_APPROVAL ( #85, ( #245 ) ) ;
#131 = EDGE_LOOP ( 'NONE', ( #221, #176, #8, #247 ) ) ;
#132 = CIRCLE ( 'NONE', #58, 2.500000000000000000 ) ;
#133 = CALENDAR_DATE ( 2022, 7, 7 ) ;
#134 = ORIENTED_EDGE ( 'NONE', *, *, #84, .F. ) ;
#135 = PLANE ( 'NONE',  #59 ) ;
#136 = DIRECTION ( 'NONE',  ( 0.000000000000000000, 0.000000000000000000, 1.000000000000000000 ) ) ;
#137 = DIRECTION ( 'NONE',  ( -0.000000000000000000, -0.000000000000000000, -1.000000000000000000 ) ) ;
#138 = DESIGN_CONTEXT ( 'detailed design', #154, 'design' ) ;
#139 =( NAMED_UNIT ( * ) PLANE_ANGLE_UNIT ( ) SI_UNIT ( $, .RADIAN. ) );
#140 = VERTEX_POINT ( 'NONE', #56 ) ;
#141 = DIRECTION ( 'NONE',  ( 1.000000000000000000, 0.000000000000000000, 0.000000000000000000 ) ) ;
#142 = VERTEX_POINT ( 'NONE', #250 ) ;
#143 = DIRECTION ( 'NONE',  ( 0.000000000000000000, 0.000000000000000000, 1.000000000000000000 ) ) ;
#144 = APPROVAL_PERSON_ORGANIZATION ( #3, #105, #172 ) ;
#145 = APPLICATION_CONTEXT ( 'configuration controlled 3d designs of mechanical parts and assemblies' ) ;
#146 = APPROVAL_PERSON_ORGANIZATION ( #97, #121, #94 ) ;
#147 = EDGE_CURVE ( 'NONE', #243, #9, #254, .T. ) ;
#148 = AXIS2_PLACEMENT_3D ( 'NONE', #230, #31, #162 ) ;
#149 = AXIS2_PLACEMENT_3D ( 'NONE', #47, #212, #36 ) ;
#150 = CALENDAR_DATE ( 2022, 7, 7 ) ;
#151 = ORIENTED_EDGE ( 'NONE', *, *, #37, .F. ) ;
#152 = MANIFOLD_SOLID_BREP ( 'Pøidat vysunutím3', #181 ) ;
#153 = CC_DESIGN_APPROVAL ( #121, ( #209 ) ) ;
#154 = APPLICATION_CONTEXT ( 'configuration controlled 3d designs of mechanical parts and assemblies' ) ;
#155 = VERTEX_POINT ( 'NONE', #235 ) ;
#156 = PERSON_AND_ORGANIZATION_ROLE ( 'classification_officer' ) ;
#157 = ORIENTED_EDGE ( 'NONE', *, *, #113, .T. ) ;
#158 = CARTESIAN_POINT ( 'NONE',  ( -5.000000000000000000, 0.000000000000000000, 3.000000000000000000 ) ) ;
#159 = PERSON_AND_ORGANIZATION_ROLE ( 'design_supplier' ) ;
#160 = EDGE_LOOP ( 'NONE', ( #118, #18, #168, #25 ) ) ;
#161 = DIRECTION ( 'NONE',  ( 1.000000000000000000, 0.000000000000000000, -0.000000000000000000 ) ) ;
#162 = DIRECTION ( 'NONE',  ( -1.000000000000000000, 0.000000000000000000, 0.000000000000000000 ) ) ;
#163 = CARTESIAN_POINT ( 'NONE',  ( 0.000000000000000000, 0.000000000000000000, 3.000000000000000000 ) ) ;
#164 = CARTESIAN_POINT ( 'NONE',  ( 0.000000000000000000, 0.000000000000000000, 3.000000000000000000 ) ) ;
#165 = VERTEX_POINT ( 'NONE', #14 ) ;
#166 = LOCAL_TIME ( 19, 47, 13.00000000000000000, #187 ) ;
#168 = ORIENTED_EDGE ( 'NONE', *, *, #84, .T. ) ;
#167 = EDGE_CURVE ( 'NONE', #142, #140, #111, .T. ) ;
#169 = LOCAL_TIME ( 19, 47, 13.00000000000000000, #170 ) ;
#170 = COORDINATED_UNIVERSAL_TIME_OFFSET ( 1, 0, .AHEAD. ) ;
#171 = COORDINATED_UNIVERSAL_TIME_OFFSET ( 1, 0, .AHEAD. ) ;
#172 = APPROVAL_ROLE ( '' ) ;
#173 = CARTESIAN_POINT ( 'NONE',  ( 2.500000000000000000, 3.061616997868383141E-16, 203.0000000000000000 ) ) ;
#174 = CARTESIAN_POINT ( 'NONE',  ( -2.500000000000000000, 0.000000000000000000, 203.0000000000000000 ) ) ;
#175 = PLANE ( 'NONE',  #20 ) ;
#176 = ORIENTED_EDGE ( 'NONE', *, *, #203, .F. ) ;
#177 = FACE_OUTER_BOUND ( 'NONE', #46, .T. ) ;
#178 = CARTESIAN_POINT ( 'NONE',  ( 0.000000000000000000, 0.000000000000000000, 203.0000000000000000 ) ) ;
#179 = CARTESIAN_POINT ( 'NONE',  ( 5.000000000000000000, 6.123233995736766282E-16, 0.000000000000000000 ) ) ;
#180 = CARTESIAN_POINT ( 'NONE',  ( -5.000000000000000000, 0.000000000000000000, 0.000000000000000000 ) ) ;
#181 = CLOSED_SHELL ( 'NONE', ( #92, #220, #51, #234, #125, #24, #202 ) ) ;
#182 = CC_DESIGN_PERSON_AND_ORGANIZATION_ASSIGNMENT ( #72, #159, ( #183 ) ) ;
#183 = PRODUCT_DEFINITION_FORMATION_WITH_SPECIFIED_SOURCE ( 'LIBOVOLNÝ', '', #196, .NOT_KNOWN. ) ;
#184 = CC_DESIGN_PERSON_AND_ORGANIZATION_ASSIGNMENT ( #62, #223, ( #209 ) ) ;
#185 = APPROVAL_STATUS ( 'not_yet_approved' ) ;
#186 = CIRCLE ( 'NONE', #104, 2.500000000000000000 ) ;
#187 = COORDINATED_UNIVERSAL_TIME_OFFSET ( 1, 0, .AHEAD. ) ;
#188 = COORDINATED_UNIVERSAL_TIME_OFFSET ( 1, 0, .AHEAD. ) ;
#189 = DIRECTION ( 'NONE',  ( -0.000000000000000000, -0.000000000000000000, -1.000000000000000000 ) ) ;
#190 = DIRECTION ( 'NONE',  ( 1.000000000000000000, 0.000000000000000000, -0.000000000000000000 ) ) ;
#191 = LINE ( 'NONE', #53, #80 ) ;
#192 = CARTESIAN_POINT ( 'NONE',  ( 0.000000000000000000, 0.000000000000000000, 3.000000000000000000 ) ) ;
#193 = CARTESIAN_POINT ( 'NONE',  ( 0.000000000000000000, 0.000000000000000000, 0.000000000000000000 ) ) ;
#194 = DIRECTION ( 'NONE',  ( 1.000000000000000000, 0.000000000000000000, 0.000000000000000000 ) ) ;
#195 = DIRECTION ( 'NONE',  ( 0.000000000000000000, 0.000000000000000000, 1.000000000000000000 ) ) ;
#196 = PRODUCT ( '14c4', '14c4', '', ( #12 ) ) ;
#197 = EDGE_LOOP ( 'NONE', ( #89, #95 ) ) ;
#198 = DIRECTION ( 'NONE',  ( 1.000000000000000000, 0.000000000000000000, 0.000000000000000000 ) ) ;
#199 = PERSON ( 'NEURÈENÝ', 'NEURÈENÝ', 'NEURÈENÝ', ('NEURÈENÝ'), ('NEURÈENÝ'), ('NEURÈENÝ') ) ;
#200 = PRODUCT_DEFINITION_SHAPE ( 'NONE', 'NONE',  #209 ) ;
#201 = VECTOR ( 'NONE', #137, 1000.000000000000000 ) ;
#202 = ADVANCED_FACE ( 'NONE', ( #228 ), #135, .T. ) ;
#203 = EDGE_CURVE ( 'NONE', #155, #38, #186, .T. ) ;
#204 = AXIS2_PLACEMENT_3D ( 'NONE', #164, #218, #141 ) ;
#205 = APPROVAL_STATUS ( 'not_yet_approved' ) ;
#206 = ORIENTED_EDGE ( 'NONE', *, *, #100, .F. ) ;
#207 = ORIENTED_EDGE ( 'NONE', *, *, #42, .F. ) ;
#208 = DIRECTION ( 'NONE',  ( 1.000000000000000000, 0.000000000000000000, 0.000000000000000000 ) ) ;
#209 = PRODUCT_DEFINITION ( 'NEZNÁMÝ', '', #183, #138 ) ;
#210 = DATE_AND_TIME ( #150, #69 ) ;
#211 = DIRECTION ( 'NONE',  ( 0.000000000000000000, 0.000000000000000000, 1.000000000000000000 ) ) ;
#212 = DIRECTION ( 'NONE',  ( 0.000000000000000000, 0.000000000000000000, 1.000000000000000000 ) ) ;
#213 = DIRECTION ( 'NONE',  ( 1.000000000000000000, 0.000000000000000000, 0.000000000000000000 ) ) ;
#214 = ORIENTED_EDGE ( 'NONE', *, *, #203, .T. ) ;
#215 = FACE_BOUND ( 'NONE', #197, .T. ) ;
#216 = DIRECTION ( 'NONE',  ( 1.000000000000000000, 0.000000000000000000, 0.000000000000000000 ) ) ;
#217 = CARTESIAN_POINT ( 'NONE',  ( 0.000000000000000000, 0.000000000000000000, 203.0000000000000000 ) ) ;
#218 = DIRECTION ( 'NONE',  ( 0.000000000000000000, 0.000000000000000000, 1.000000000000000000 ) ) ;
#219 = CIRCLE ( 'NONE', #124, 5.000000000000000000 ) ;
#220 = ADVANCED_FACE ( 'NONE', ( #57 ), #54, .T. ) ;
#221 = ORIENTED_EDGE ( 'NONE', *, *, #22, .F. ) ;
#222 = CIRCLE ( 'NONE', #238, 5.000000000000000000 ) ;
#223 = PERSON_AND_ORGANIZATION_ROLE ( 'creator' ) ;
#224 = CARTESIAN_POINT ( 'NONE',  ( 0.000000000000000000, 0.000000000000000000, 3.000000000000000000 ) ) ;
#225 = AXIS2_PLACEMENT_3D ( 'NONE', #193, #27, #213 ) ;
#226 = PERSON_AND_ORGANIZATION_ROLE ( 'design_owner' ) ;
#227 = ORIENTED_EDGE ( 'NONE', *, *, #167, .T. ) ;
#228 = FACE_OUTER_BOUND ( 'NONE', #11, .T. ) ;
#229 = CALENDAR_DATE ( 2022, 7, 7 ) ;
#230 = CARTESIAN_POINT ( 'NONE',  ( 0.000000000000000000, 0.000000000000000000, 3.000000000000000000 ) ) ;
#231 = CARTESIAN_POINT ( 'NONE',  ( 0.000000000000000000, 0.000000000000000000, 3.000000000000000000 ) ) ;
#232 = DIRECTION ( 'NONE',  ( -0.000000000000000000, -0.000000000000000000, -1.000000000000000000 ) ) ;
#233 = DIRECTION ( 'NONE',  ( -1.000000000000000000, 0.000000000000000000, 0.000000000000000000 ) ) ;
#234 = ADVANCED_FACE ( 'NONE', ( #215, #177 ), #248, .T. ) ;
#235 = CARTESIAN_POINT ( 'NONE',  ( -2.500000000000000000, 0.000000000000000000, 203.0000000000000000 ) ) ;
#236 = AXIS2_PLACEMENT_3D ( 'NONE', #29, #189, #90 ) ;
#237 = AXIS2_PLACEMENT_3D ( 'NONE', #102, #30, #161 ) ;
#238 = AXIS2_PLACEMENT_3D ( 'NONE', #224, #136, #194 ) ;
#239 = DATE_AND_TIME ( #133, #253 ) ;
#240 = PERSON_AND_ORGANIZATION ( #199, #107 ) ;
#241 = CYLINDRICAL_SURFACE ( 'NONE', #236, 2.500000000000000000 ) ;
#242 = EDGE_CURVE ( 'NONE', #140, #142, #132, .T. ) ;
#243 = VERTEX_POINT ( 'NONE', #180 ) ;
#244 = DIRECTION ( 'NONE',  ( 1.000000000000000000, 0.000000000000000000, 0.000000000000000000 ) ) ;
#245 = SECURITY_CLASSIFICATION ( '', '', #63 ) ;
#246 = APPROVAL_DATE_TIME ( #6, #105 ) ;
#247 = ORIENTED_EDGE ( 'NONE', *, *, #242, .T. ) ;
#248 = PLANE ( 'NONE',  #237 ) ;
#249 = LINE ( 'NONE', #174, #83 ) ;
#250 = CARTESIAN_POINT ( 'NONE',  ( 2.500000000000000000, 3.061616997868383141E-16, 3.000000000000000000 ) ) ;
#251 = LINE ( 'NONE', #173, #106 ) ;
#252 = CARTESIAN_POINT ( 'NONE',  ( 0.000000000000000000, 0.000000000000000000, 203.0000000000000000 ) ) ;
#253 = LOCAL_TIME ( 19, 47, 13.00000000000000000, #171 ) ;
#254 = CIRCLE ( 'NONE', #149, 5.000000000000000000 ) ;
#255 = CC_DESIGN_SECURITY_CLASSIFICATION ( #245, ( #183 ) ) ;
ENDSEC;
END-ISO-10303-21;
