ISO-10303-21;
HEADER;
FILE_DESCRIPTION (( 'STEP AP203' ),
    '1' );
FILE_NAME ('75ba.STEP',
    '2022-07-07T17:35:43',
    ( '' ),
    ( '' ),
    'SwSTEP 2.0',
    'SolidWorks 2019',
    '' );
FILE_SCHEMA (( 'CONFIG_CONTROL_DESIGN' ));
ENDSEC;

DATA;
#1 = PRODUCT ( '75ba', '75ba', '', ( #98 ) ) ;
#2 = VECTOR ( 'NONE', #4, 1000.000000000000000 ) ;
#3 = CIRCLE ( 'NONE', #39, 3.500000000000000000 ) ;
#4 = DIRECTION ( 'NONE',  ( -0.000000000000000000, -0.000000000000000000, -1.000000000000000000 ) ) ;
#5 = FACE_OUTER_BOUND ( 'NONE', #15, .T. ) ;
#6 = PERSON_AND_ORGANIZATION ( #116, #162 ) ;
#7 = VERTEX_POINT ( 'NONE', #55 ) ;
#8 = DIRECTION ( 'NONE',  ( 1.000000000000000000, 0.000000000000000000, 0.000000000000000000 ) ) ;
#9 = CARTESIAN_POINT ( 'NONE',  ( 3.500000000000000000, 4.286263797015736595E-16, 320.0000000000000000 ) ) ;
#10 = EDGE_CURVE ( 'NONE', #7, #223, #111, .T. ) ;
#11 = APPROVAL_STATUS ( 'not_yet_approved' ) ;
#12 = ORIENTED_EDGE ( 'NONE', *, *, #89, .F. ) ;
#13 = CIRCLE ( 'NONE', #186, 3.500000000000000000 ) ;
#14 = DATE_AND_TIME ( #190, #171 ) ;
#15 = EDGE_LOOP ( 'NONE', ( #145, #58 ) ) ;
#16 = SHAPE_DEFINITION_REPRESENTATION ( #110, #91 ) ;
#17 = EDGE_CURVE ( 'NONE', #32, #135, #210, .T. ) ;
#18 = CIRCLE ( 'NONE', #49, 6.000000000000000888 ) ;
#19 = FACE_BOUND ( 'NONE', #248, .T. ) ;
#20 = APPROVAL_PERSON_ORGANIZATION ( #229, #168, #174 ) ;
#21 = CYLINDRICAL_SURFACE ( 'NONE', #109, 6.000000000000000888 ) ;
#22 = CARTESIAN_POINT ( 'NONE',  ( 3.500000000000000000, 4.286263797015736595E-16, 5.000000000000000000 ) ) ;
#23 = DIRECTION ( 'NONE',  ( 1.000000000000000000, 0.000000000000000000, 0.000000000000000000 ) ) ;
#24 = ADVANCED_FACE ( 'NONE', ( #35 ), #212, .T. ) ;
#25 = DIRECTION ( 'NONE',  ( -0.000000000000000000, -0.000000000000000000, -1.000000000000000000 ) ) ;
#26 = AXIS2_PLACEMENT_3D ( 'NONE', #151, #76, #8 ) ;
#27 = SECURITY_CLASSIFICATION ( '', '', #241 ) ;
#28 = APPLICATION_CONTEXT ( 'configuration controlled 3d designs of mechanical parts and assemblies' ) ;
#29 = ADVANCED_FACE ( 'NONE', ( #191 ), #242, .T. ) ;
#30 = AXIS2_PLACEMENT_3D ( 'NONE', #159, #106, #126 ) ;
#31 = EDGE_LOOP ( 'NONE', ( #254, #173, #133, #208 ) ) ;
#32 = VERTEX_POINT ( 'NONE', #163 ) ;
#33 = CALENDAR_DATE ( 2022, 7, 7 ) ;
#34 = APPROVAL ( #11, 'NEURÈENÝ' ) ;
#35 = FACE_OUTER_BOUND ( 'NONE', #95, .T. ) ;
#36 = PERSON_AND_ORGANIZATION_ROLE ( 'classification_officer' ) ;
#37 = PLANE ( 'NONE',  #247 ) ;
#38 = APPROVAL_STATUS ( 'not_yet_approved' ) ;
#39 = AXIS2_PLACEMENT_3D ( 'NONE', #124, #157, #203 ) ;
#40 = APPROVAL_DATE_TIME ( #216, #34 ) ;
#41 = CARTESIAN_POINT ( 'NONE',  ( -3.500000000000000000, 0.000000000000000000, 320.0000000000000000 ) ) ;
#42 = CIRCLE ( 'NONE', #30, 6.000000000000000888 ) ;
#43 = DIRECTION ( 'NONE',  ( 0.000000000000000000, 0.000000000000000000, 1.000000000000000000 ) ) ;
#44 = CARTESIAN_POINT ( 'NONE',  ( 6.000000000000000888, 7.347880794884120722E-16, 0.000000000000000000 ) ) ;
#45 = ORIENTED_EDGE ( 'NONE', *, *, #52, .T. ) ;
#46 = DIRECTION ( 'NONE',  ( 1.000000000000000000, 0.000000000000000000, 0.000000000000000000 ) ) ;
#47 = ORIENTED_EDGE ( 'NONE', *, *, #141, .F. ) ;
#48 =( NAMED_UNIT ( * ) SI_UNIT ( $, .STERADIAN. ) SOLID_ANGLE_UNIT ( ) );
#49 = AXIS2_PLACEMENT_3D ( 'NONE', #122, #43, #142 ) ;
#50 = APPROVAL_PERSON_ORGANIZATION ( #121, #34, #153 ) ;
#51 = FACE_OUTER_BOUND ( 'NONE', #189, .T. ) ;
#52 = EDGE_CURVE ( 'NONE', #164, #84, #167, .T. ) ;
#53 = CALENDAR_DATE ( 2022, 7, 7 ) ;
#54 = LOCAL_TIME ( 19, 35, 43.00000000000000000, #70 ) ;
#55 = CARTESIAN_POINT ( 'NONE',  ( 3.500000000000000000, 4.286263797015736595E-16, 320.0000000000000000 ) ) ;
#56 = PERSON_AND_ORGANIZATION ( #116, #162 ) ;
#57 = DIRECTION ( 'NONE',  ( 1.000000000000000000, 0.000000000000000000, 0.000000000000000000 ) ) ;
#58 = ORIENTED_EDGE ( 'NONE', *, *, #181, .T. ) ;
#59 = COORDINATED_UNIVERSAL_TIME_OFFSET ( 1, 0, .AHEAD. ) ;
#60 = DIRECTION ( 'NONE',  ( 0.000000000000000000, 0.000000000000000000, 1.000000000000000000 ) ) ;
#61 = EDGE_CURVE ( 'NONE', #84, #223, #184, .T. ) ;
#62 = AXIS2_PLACEMENT_3D ( 'NONE', #220, #202, #23 ) ;
#63 = CARTESIAN_POINT ( 'NONE',  ( 0.000000000000000000, 0.000000000000000000, 5.000000000000000000 ) ) ;
#64 = CARTESIAN_POINT ( 'NONE',  ( 0.000000000000000000, 0.000000000000000000, 320.0000000000000000 ) ) ;
#65 = ADVANCED_FACE ( 'NONE', ( #5 ), #137, .T. ) ;
#66 = ADVANCED_FACE ( 'NONE', ( #51 ), #37, .F. ) ;
#67 = VERTEX_POINT ( 'NONE', #187 ) ;
#68 = ORIENTED_EDGE ( 'NONE', *, *, #141, .T. ) ;
#69 = AXIS2_PLACEMENT_3D ( 'NONE', #93, #227, #239 ) ;
#70 = COORDINATED_UNIVERSAL_TIME_OFFSET ( 1, 0, .AHEAD. ) ;
#71 = DIRECTION ( 'NONE',  ( -1.000000000000000000, 0.000000000000000000, 0.000000000000000000 ) ) ;
#72 = PERSON_AND_ORGANIZATION ( #116, #162 ) ;
#73 =( GEOMETRIC_REPRESENTATION_CONTEXT ( 3 ) GLOBAL_UNCERTAINTY_ASSIGNED_CONTEXT ( ( #123 ) ) GLOBAL_UNIT_ASSIGNED_CONTEXT ( ( #233, #143, #48 ) ) REPRESENTATION_CONTEXT ( 'NONE', 'WORKASPACE' ) );
#74 = DIRECTION ( 'NONE',  ( -1.000000000000000000, 0.000000000000000000, 0.000000000000000000 ) ) ;
#75 = ORIENTED_EDGE ( 'NONE', *, *, #61, .F. ) ;
#76 = DIRECTION ( 'NONE',  ( 0.000000000000000000, 0.000000000000000000, 1.000000000000000000 ) ) ;
#77 = CC_DESIGN_PERSON_AND_ORGANIZATION_ASSIGNMENT ( #72, #166, ( #253 ) ) ;
#78 = AXIS2_PLACEMENT_3D ( 'NONE', #152, #230, #57 ) ;
#79 = DATE_TIME_ROLE ( 'classification_date' ) ;
#80 = DIRECTION ( 'NONE',  ( 0.000000000000000000, 0.000000000000000000, 1.000000000000000000 ) ) ;
#81 = CC_DESIGN_PERSON_AND_ORGANIZATION_ASSIGNMENT ( #56, #36, ( #27 ) ) ;
#82 = LINE ( 'NONE', #108, #215 ) ;
#83 = FACE_OUTER_BOUND ( 'NONE', #131, .T. ) ;
#84 = VERTEX_POINT ( 'NONE', #199 ) ;
#85 = PLANE ( 'NONE',  #125 ) ;
#86 = EDGE_CURVE ( 'NONE', #135, #67, #42, .T. ) ;
#87 = LOCAL_TIME ( 19, 35, 43.00000000000000000, #209 ) ;
#88 = ORIENTED_EDGE ( 'NONE', *, *, #232, .F. ) ;
#89 = EDGE_CURVE ( 'NONE', #223, #84, #205, .T. ) ;
#90 = AXIS2_PLACEMENT_3D ( 'NONE', #97, #170, #71 ) ;
#91 = ADVANCED_BREP_SHAPE_REPRESENTATION ( '75ba', ( #235, #26 ), #73 ) ;
#92 = ORIENTED_EDGE ( 'NONE', *, *, #17, .F. ) ;
#93 = CARTESIAN_POINT ( 'NONE',  ( 0.000000000000000000, 0.000000000000000000, 320.0000000000000000 ) ) ;
#94 = APPROVAL_DATE_TIME ( #169, #207 ) ;
#95 = EDGE_LOOP ( 'NONE', ( #217, #88, #45, #107 ) ) ;
#96 = PERSON_AND_ORGANIZATION_ROLE ( 'design_supplier' ) ;
#97 = CARTESIAN_POINT ( 'NONE',  ( 0.000000000000000000, 0.000000000000000000, 320.0000000000000000 ) ) ;
#98 = MECHANICAL_CONTEXT ( 'NONE', #138, 'mechanical' ) ;
#99 = DIRECTION ( 'NONE',  ( 0.000000000000000000, 0.000000000000000000, 1.000000000000000000 ) ) ;
#100 = DESIGN_CONTEXT ( 'detailed design', #28, 'design' ) ;
#101 = ORIENTED_EDGE ( 'NONE', *, *, #224, .T. ) ;
#102 = DIRECTION ( 'NONE',  ( 1.000000000000000000, 0.000000000000000000, -0.000000000000000000 ) ) ;
#103 = CC_DESIGN_APPROVAL ( #207, ( #253 ) ) ;
#104 = CC_DESIGN_DATE_AND_TIME_ASSIGNMENT ( #154, #188, ( #253 ) ) ;
#105 = DIRECTION ( 'NONE',  ( 0.000000000000000000, 0.000000000000000000, 1.000000000000000000 ) ) ;
#106 = DIRECTION ( 'NONE',  ( 0.000000000000000000, 0.000000000000000000, 1.000000000000000000 ) ) ;
#107 = ORIENTED_EDGE ( 'NONE', *, *, #61, .T. ) ;
#108 = CARTESIAN_POINT ( 'NONE',  ( -6.000000000000000888, 0.000000000000000000, 5.000000000000000000 ) ) ;
#109 = AXIS2_PLACEMENT_3D ( 'NONE', #156, #250, #198 ) ;
#110 = PRODUCT_DEFINITION_SHAPE ( 'NONE', 'NONE',  #253 ) ;
#111 = LINE ( 'NONE', #9, #2 ) ;
#112 = CARTESIAN_POINT ( 'NONE',  ( 6.000000000000000888, 7.347880794884120722E-16, 5.000000000000000000 ) ) ;
#113 = CALENDAR_DATE ( 2022, 7, 7 ) ;
#114 = DIRECTION ( 'NONE',  ( 1.000000000000000000, 0.000000000000000000, -0.000000000000000000 ) ) ;
#115 = DATE_AND_TIME ( #113, #54 ) ;
#116 = PERSON ( 'NEURÈENÝ', 'NEURÈENÝ', 'NEURÈENÝ', ('NEURÈENÝ'), ('NEURÈENÝ'), ('NEURÈENÝ') ) ;
#117 = ORIENTED_EDGE ( 'NONE', *, *, #226, .T. ) ;
#118 = ORIENTED_EDGE ( 'NONE', *, *, #52, .F. ) ;
#119 = APPLICATION_PROTOCOL_DEFINITION ( 'international standard', 'config_control_design', 1994, #28 ) ;
#120 = APPROVAL_PERSON_ORGANIZATION ( #211, #207, #139 ) ;
#121 = PERSON_AND_ORGANIZATION ( #116, #162 ) ;
#122 = CARTESIAN_POINT ( 'NONE',  ( 0.000000000000000000, 0.000000000000000000, 0.000000000000000000 ) ) ;
#123 = UNCERTAINTY_MEASURE_WITH_UNIT (LENGTH_MEASURE( 1.000000000000000082E-05 ), #233, 'distance_accuracy_value', 'NONE');
#124 = CARTESIAN_POINT ( 'NONE',  ( 0.000000000000000000, 0.000000000000000000, 320.0000000000000000 ) ) ;
#125 = AXIS2_PLACEMENT_3D ( 'NONE', #200, #105, #102 ) ;
#126 = DIRECTION ( 'NONE',  ( 1.000000000000000000, 0.000000000000000000, 0.000000000000000000 ) ) ;
#127 = EDGE_LOOP ( 'NONE', ( #238, #180, #192, #118 ) ) ;
#128 = CARTESIAN_POINT ( 'NONE',  ( 0.000000000000000000, 0.000000000000000000, 320.0000000000000000 ) ) ;
#129 = CC_DESIGN_PERSON_AND_ORGANIZATION_ASSIGNMENT ( #148, #96, ( #176 ) ) ;
#130 = AXIS2_PLACEMENT_3D ( 'NONE', #63, #80, #46 ) ;
#131 = EDGE_LOOP ( 'NONE', ( #92, #195, #101, #68 ) ) ;
#132 = VECTOR ( 'NONE', #185, 1000.000000000000000 ) ;
#133 = ORIENTED_EDGE ( 'NONE', *, *, #86, .T. ) ;
#134 = COORDINATED_UNIVERSAL_TIME_OFFSET ( 1, 0, .AHEAD. ) ;
#135 = VERTEX_POINT ( 'NONE', #44 ) ;
#136 = PERSON_AND_ORGANIZATION_ROLE ( 'creator' ) ;
#137 = PLANE ( 'NONE',  #69 ) ;
#138 = APPLICATION_CONTEXT ( 'configuration controlled 3d designs of mechanical parts and assemblies' ) ;
#139 = APPROVAL_ROLE ( '' ) ;
#140 = CALENDAR_DATE ( 2022, 7, 7 ) ;
#141 = EDGE_CURVE ( 'NONE', #67, #135, #18, .T. ) ;
#142 = DIRECTION ( 'NONE',  ( 1.000000000000000000, 0.000000000000000000, 0.000000000000000000 ) ) ;
#143 =( NAMED_UNIT ( * ) PLANE_ANGLE_UNIT ( ) SI_UNIT ( $, .RADIAN. ) );
#144 = DIRECTION ( 'NONE',  ( 0.000000000000000000, 0.000000000000000000, 1.000000000000000000 ) ) ;
#145 = ORIENTED_EDGE ( 'NONE', *, *, #232, .T. ) ;
#146 = DIRECTION ( 'NONE',  ( -0.000000000000000000, -0.000000000000000000, -1.000000000000000000 ) ) ;
#147 = VECTOR ( 'NONE', #146, 1000.000000000000000 ) ;
#148 = PERSON_AND_ORGANIZATION ( #116, #162 ) ;
#149 = CARTESIAN_POINT ( 'NONE',  ( 0.000000000000000000, 0.000000000000000000, 0.000000000000000000 ) ) ;
#150 = CC_DESIGN_SECURITY_CLASSIFICATION ( #27, ( #176 ) ) ;
#151 = CARTESIAN_POINT ( 'NONE',  ( 0.000000000000000000, 0.000000000000000000, 0.000000000000000000 ) ) ;
#152 = CARTESIAN_POINT ( 'NONE',  ( 0.000000000000000000, 0.000000000000000000, 5.000000000000000000 ) ) ;
#153 = APPROVAL_ROLE ( '' ) ;
#154 = DATE_AND_TIME ( #33, #87 ) ;
#155 = AXIS2_PLACEMENT_3D ( 'NONE', #64, #25, #252 ) ;
#156 = CARTESIAN_POINT ( 'NONE',  ( 0.000000000000000000, 0.000000000000000000, 5.000000000000000000 ) ) ;
#157 = DIRECTION ( 'NONE',  ( 0.000000000000000000, 0.000000000000000000, 1.000000000000000000 ) ) ;
#158 = AXIS2_PLACEMENT_3D ( 'NONE', #218, #60, #255 ) ;
#159 = CARTESIAN_POINT ( 'NONE',  ( 0.000000000000000000, 0.000000000000000000, 0.000000000000000000 ) ) ;
#160 = DIRECTION ( 'NONE',  ( 1.000000000000000000, 0.000000000000000000, 0.000000000000000000 ) ) ;
#161 = ADVANCED_FACE ( 'NONE', ( #175 ), #251, .T. ) ;
#162 = ORGANIZATION ( 'NEURÈENÝ', 'NEURÈENÝ', '' ) ;
#163 = CARTESIAN_POINT ( 'NONE',  ( 6.000000000000000888, 7.347880794884120722E-16, 5.000000000000000000 ) ) ;
#164 = VERTEX_POINT ( 'NONE', #41 ) ;
#165 = CARTESIAN_POINT ( 'NONE',  ( -3.500000000000000000, 0.000000000000000000, 320.0000000000000000 ) ) ;
#166 = PERSON_AND_ORGANIZATION_ROLE ( 'creator' ) ;
#167 = LINE ( 'NONE', #165, #132 ) ;
#168 = APPROVAL ( #38, 'NEURÈENÝ' ) ;
#169 = DATE_AND_TIME ( #53, #243 ) ;
#170 = DIRECTION ( 'NONE',  ( -0.000000000000000000, -0.000000000000000000, -1.000000000000000000 ) ) ;
#171 = LOCAL_TIME ( 19, 35, 43.00000000000000000, #172 ) ;
#172 = COORDINATED_UNIVERSAL_TIME_OFFSET ( 1, 0, .AHEAD. ) ;
#173 = ORIENTED_EDGE ( 'NONE', *, *, #17, .T. ) ;
#174 = APPROVAL_ROLE ( '' ) ;
#175 = FACE_OUTER_BOUND ( 'NONE', #127, .T. ) ;
#176 = PRODUCT_DEFINITION_FORMATION_WITH_SPECIFIED_SOURCE ( 'LIBOVOLNÝ', '', #1, .NOT_KNOWN. ) ;
#177 = DIRECTION ( 'NONE',  ( -0.000000000000000000, -0.000000000000000000, -1.000000000000000000 ) ) ;
#178 = PRODUCT_RELATED_PRODUCT_CATEGORY ( 'detail', '', ( #1 ) ) ;
#179 = CARTESIAN_POINT ( 'NONE',  ( -6.000000000000000888, 0.000000000000000000, 5.000000000000000000 ) ) ;
#180 = ORIENTED_EDGE ( 'NONE', *, *, #10, .T. ) ;
#181 = EDGE_CURVE ( 'NONE', #7, #164, #3, .T. ) ;
#182 = CC_DESIGN_APPROVAL ( #34, ( #27 ) ) ;
#183 = CC_DESIGN_PERSON_AND_ORGANIZATION_ASSIGNMENT ( #194, #136, ( #176 ) ) ;
#184 = CIRCLE ( 'NONE', #78, 3.500000000000000000 ) ;
#185 = DIRECTION ( 'NONE',  ( -0.000000000000000000, -0.000000000000000000, -1.000000000000000000 ) ) ;
#186 = AXIS2_PLACEMENT_3D ( 'NONE', #128, #144, #160 ) ;
#187 = CARTESIAN_POINT ( 'NONE',  ( -6.000000000000000888, 0.000000000000000000, 0.000000000000000000 ) ) ;
#188 = DATE_TIME_ROLE ( 'creation_date' ) ;
#189 = EDGE_LOOP ( 'NONE', ( #47, #197 ) ) ;
#190 = CALENDAR_DATE ( 2022, 7, 7 ) ;
#191 = FACE_OUTER_BOUND ( 'NONE', #31, .T. ) ;
#192 = ORIENTED_EDGE ( 'NONE', *, *, #89, .T. ) ;
#193 = ADVANCED_FACE ( 'NONE', ( #83 ), #21, .T. ) ;
#194 = PERSON_AND_ORGANIZATION ( #116, #162 ) ;
#195 = ORIENTED_EDGE ( 'NONE', *, *, #237, .F. ) ;
#196 = PERSON_AND_ORGANIZATION_ROLE ( 'design_owner' ) ;
#197 = ORIENTED_EDGE ( 'NONE', *, *, #86, .F. ) ;
#198 = DIRECTION ( 'NONE',  ( -1.000000000000000000, 0.000000000000000000, 0.000000000000000000 ) ) ;
#199 = CARTESIAN_POINT ( 'NONE',  ( -3.500000000000000000, 0.000000000000000000, 5.000000000000000000 ) ) ;
#200 = CARTESIAN_POINT ( 'NONE',  ( 0.000000000000000000, 0.000000000000000000, 5.000000000000000000 ) ) ;
#201 = VERTEX_POINT ( 'NONE', #179 ) ;
#202 = DIRECTION ( 'NONE',  ( 0.000000000000000000, 0.000000000000000000, 1.000000000000000000 ) ) ;
#203 = DIRECTION ( 'NONE',  ( 1.000000000000000000, 0.000000000000000000, 0.000000000000000000 ) ) ;
#204 = ADVANCED_FACE ( 'NONE', ( #19, #234 ), #85, .T. ) ;
#205 = CIRCLE ( 'NONE', #158, 3.500000000000000000 ) ;
#206 = EDGE_LOOP ( 'NONE', ( #245, #117 ) ) ;
#207 = APPROVAL ( #214, 'NEURÈENÝ' ) ;
#208 = ORIENTED_EDGE ( 'NONE', *, *, #224, .F. ) ;
#209 = COORDINATED_UNIVERSAL_TIME_OFFSET ( 1, 0, .AHEAD. ) ;
#210 = LINE ( 'NONE', #112, #147 ) ;
#211 = PERSON_AND_ORGANIZATION ( #116, #162 ) ;
#212 = CYLINDRICAL_SURFACE ( 'NONE', #90, 3.500000000000000000 ) ;
#213 = CC_DESIGN_DATE_AND_TIME_ASSIGNMENT ( #14, #79, ( #27 ) ) ;
#214 = APPROVAL_STATUS ( 'not_yet_approved' ) ;
#215 = VECTOR ( 'NONE', #177, 1000.000000000000000 ) ;
#216 = DATE_AND_TIME ( #140, #222 ) ;
#217 = ORIENTED_EDGE ( 'NONE', *, *, #10, .F. ) ;
#218 = CARTESIAN_POINT ( 'NONE',  ( 0.000000000000000000, 0.000000000000000000, 5.000000000000000000 ) ) ;
#219 = CC_DESIGN_APPROVAL ( #168, ( #176 ) ) ;
#220 = CARTESIAN_POINT ( 'NONE',  ( 0.000000000000000000, 0.000000000000000000, 5.000000000000000000 ) ) ;
#221 = AXIS2_PLACEMENT_3D ( 'NONE', #225, #240, #74 ) ;
#222 = LOCAL_TIME ( 19, 35, 43.00000000000000000, #59 ) ;
#223 = VERTEX_POINT ( 'NONE', #22 ) ;
#224 = EDGE_CURVE ( 'NONE', #201, #67, #82, .T. ) ;
#225 = CARTESIAN_POINT ( 'NONE',  ( 0.000000000000000000, 0.000000000000000000, 5.000000000000000000 ) ) ;
#226 = EDGE_CURVE ( 'NONE', #32, #201, #228, .T. ) ;
#227 = DIRECTION ( 'NONE',  ( 0.000000000000000000, 0.000000000000000000, 1.000000000000000000 ) ) ;
#228 = CIRCLE ( 'NONE', #130, 6.000000000000000888 ) ;
#229 = PERSON_AND_ORGANIZATION ( #116, #162 ) ;
#230 = DIRECTION ( 'NONE',  ( 0.000000000000000000, 0.000000000000000000, 1.000000000000000000 ) ) ;
#231 = APPLICATION_PROTOCOL_DEFINITION ( 'international standard', 'config_control_design', 1994, #138 ) ;
#232 = EDGE_CURVE ( 'NONE', #164, #7, #13, .T. ) ;
#233 =( LENGTH_UNIT ( ) NAMED_UNIT ( * ) SI_UNIT ( .MILLI., .METRE. ) );
#234 = FACE_OUTER_BOUND ( 'NONE', #206, .T. ) ;
#235 = MANIFOLD_SOLID_BREP ( 'Pøidat vysunutím3', #236 ) ;
#236 = CLOSED_SHELL ( 'NONE', ( #161, #29, #193, #204, #66, #24, #65 ) ) ;
#237 = EDGE_CURVE ( 'NONE', #201, #32, #249, .T. ) ;
#238 = ORIENTED_EDGE ( 'NONE', *, *, #181, .F. ) ;
#239 = DIRECTION ( 'NONE',  ( 1.000000000000000000, 0.000000000000000000, -0.000000000000000000 ) ) ;
#240 = DIRECTION ( 'NONE',  ( -0.000000000000000000, -0.000000000000000000, -1.000000000000000000 ) ) ;
#241 = SECURITY_CLASSIFICATION_LEVEL ( 'unclassified' ) ;
#242 = CYLINDRICAL_SURFACE ( 'NONE', #221, 6.000000000000000888 ) ;
#243 = LOCAL_TIME ( 19, 35, 43.00000000000000000, #134 ) ;
#244 = CC_DESIGN_PERSON_AND_ORGANIZATION_ASSIGNMENT ( #6, #196, ( #1 ) ) ;
#245 = ORIENTED_EDGE ( 'NONE', *, *, #237, .T. ) ;
#246 = APPROVAL_DATE_TIME ( #115, #168 ) ;
#247 = AXIS2_PLACEMENT_3D ( 'NONE', #149, #99, #114 ) ;
#248 = EDGE_LOOP ( 'NONE', ( #75, #12 ) ) ;
#249 = CIRCLE ( 'NONE', #62, 6.000000000000000888 ) ;
#250 = DIRECTION ( 'NONE',  ( -0.000000000000000000, -0.000000000000000000, -1.000000000000000000 ) ) ;
#251 = CYLINDRICAL_SURFACE ( 'NONE', #155, 3.500000000000000000 ) ;
#252 = DIRECTION ( 'NONE',  ( -1.000000000000000000, 0.000000000000000000, 0.000000000000000000 ) ) ;
#253 = PRODUCT_DEFINITION ( 'NEZNÁMÝ', '', #176, #100 ) ;
#254 = ORIENTED_EDGE ( 'NONE', *, *, #226, .F. ) ;
#255 = DIRECTION ( 'NONE',  ( 1.000000000000000000, 0.000000000000000000, 0.000000000000000000 ) ) ;
ENDSEC;
END-ISO-10303-21;
