ISO-10303-21;
HEADER;
FILE_DESCRIPTION (( 'STEP AP203' ),
    '1' );
FILE_NAME ('9331.STEP',
    '2022-07-07T17:51:37',
    ( '' ),
    ( '' ),
    'SwSTEP 2.0',
    'SolidWorks 2019',
    '' );
FILE_SCHEMA (( 'CONFIG_CONTROL_DESIGN' ));
ENDSEC;

DATA;
#1 = PRODUCT_DEFINITION ( 'NEZNÁMÝ', '', #125, #166 ) ;
#2 = EDGE_LOOP ( 'NONE', ( #47, #251 ) ) ;
#3 = DIRECTION ( 'NONE',  ( 1.000000000000000000, 0.000000000000000000, 0.000000000000000000 ) ) ;
#4 = PERSON_AND_ORGANIZATION_ROLE ( 'design_supplier' ) ;
#5 = APPROVAL_STATUS ( 'not_yet_approved' ) ;
#6 = CALENDAR_DATE ( 2022, 7, 7 ) ;
#7 = APPROVAL_DATE_TIME ( #236, #87 ) ;
#8 = VERTEX_POINT ( 'NONE', #167 ) ;
#9 = VECTOR ( 'NONE', #172, 1000.000000000000000 ) ;
#10 = ORIENTED_EDGE ( 'NONE', *, *, #170, .F. ) ;
#11 = EDGE_CURVE ( 'NONE', #86, #64, #106, .T. ) ;
#12 = DIRECTION ( 'NONE',  ( 1.000000000000000000, 0.000000000000000000, 0.000000000000000000 ) ) ;
#13 = DIRECTION ( 'NONE',  ( 0.000000000000000000, 0.000000000000000000, 1.000000000000000000 ) ) ;
#14 = CIRCLE ( 'NONE', #250, 2.000000000000000000 ) ;
#15 = CARTESIAN_POINT ( 'NONE',  ( 0.000000000000000000, 0.000000000000000000, 3.000000000000000000 ) ) ;
#16 = PERSON_AND_ORGANIZATION ( #57, #72 ) ;
#17 = DATE_AND_TIME ( #188, #32 ) ;
#18 = CC_DESIGN_PERSON_AND_ORGANIZATION_ASSIGNMENT ( #137, #41, ( #1 ) ) ;
#19 = CARTESIAN_POINT ( 'NONE',  ( -2.000000000000000000, 0.000000000000000000, 3.000000000000000000 ) ) ;
#20 = CARTESIAN_POINT ( 'NONE',  ( 0.000000000000000000, 0.000000000000000000, 253.0000000000000000 ) ) ;
#21 = APPLICATION_CONTEXT ( 'configuration controlled 3d designs of mechanical parts and assemblies' ) ;
#22 = CYLINDRICAL_SURFACE ( 'NONE', #207, 2.000000000000000000 ) ;
#23 = APPROVAL_ROLE ( '' ) ;
#24 = VERTEX_POINT ( 'NONE', #110 ) ;
#25 = ADVANCED_FACE ( 'NONE', ( #35 ), #55, .T. ) ;
#26 = DIRECTION ( 'NONE',  ( -0.000000000000000000, -0.000000000000000000, -1.000000000000000000 ) ) ;
#27 = PERSON_AND_ORGANIZATION ( #57, #72 ) ;
#28 = AXIS2_PLACEMENT_3D ( 'NONE', #214, #155, #114 ) ;
#29 = ORIENTED_EDGE ( 'NONE', *, *, #160, .T. ) ;
#30 = PRODUCT_RELATED_PRODUCT_CATEGORY ( 'detail', '', ( #101 ) ) ;
#31 = CC_DESIGN_PERSON_AND_ORGANIZATION_ASSIGNMENT ( #27, #219, ( #125 ) ) ;
#32 = LOCAL_TIME ( 19, 51, 37.00000000000000000, #239 ) ;
#33 = ORIENTED_EDGE ( 'NONE', *, *, #68, .F. ) ;
#34 = VECTOR ( 'NONE', #150, 1000.000000000000000 ) ;
#35 = FACE_OUTER_BOUND ( 'NONE', #44, .T. ) ;
#36 = CARTESIAN_POINT ( 'NONE',  ( 0.000000000000000000, 0.000000000000000000, 253.0000000000000000 ) ) ;
#37 = CARTESIAN_POINT ( 'NONE',  ( 0.000000000000000000, 0.000000000000000000, 3.000000000000000000 ) ) ;
#38 = CARTESIAN_POINT ( 'NONE',  ( 0.000000000000000000, 0.000000000000000000, 3.000000000000000000 ) ) ;
#39 = DATE_TIME_ROLE ( 'classification_date' ) ;
#40 = ORIENTED_EDGE ( 'NONE', *, *, #70, .T. ) ;
#41 = PERSON_AND_ORGANIZATION_ROLE ( 'creator' ) ;
#42 = VERTEX_POINT ( 'NONE', #19 ) ;
#43 = ORIENTED_EDGE ( 'NONE', *, *, #227, .T. ) ;
#44 = EDGE_LOOP ( 'NONE', ( #165, #40, #128, #176 ) ) ;
#45 = ADVANCED_BREP_SHAPE_REPRESENTATION ( '9331', ( #69, #28 ), #132 ) ;
#46 = APPLICATION_CONTEXT ( 'configuration controlled 3d designs of mechanical parts and assemblies' ) ;
#47 = ORIENTED_EDGE ( 'NONE', *, *, #11, .T. ) ;
#48 = CIRCLE ( 'NONE', #223, 2.000000000000000000 ) ;
#49 = DIRECTION ( 'NONE',  ( 1.000000000000000000, 0.000000000000000000, 0.000000000000000000 ) ) ;
#50 = DIRECTION ( 'NONE',  ( -1.000000000000000000, 0.000000000000000000, 0.000000000000000000 ) ) ;
#51 = VECTOR ( 'NONE', #52, 1000.000000000000000 ) ;
#52 = DIRECTION ( 'NONE',  ( -0.000000000000000000, -0.000000000000000000, -1.000000000000000000 ) ) ;
#53 = LOCAL_TIME ( 19, 51, 37.00000000000000000, #142 ) ;
#54 = DIRECTION ( 'NONE',  ( 0.000000000000000000, 0.000000000000000000, 1.000000000000000000 ) ) ;
#55 = CYLINDRICAL_SURFACE ( 'NONE', #59, 2.000000000000000000 ) ;
#56 = CC_DESIGN_PERSON_AND_ORGANIZATION_ASSIGNMENT ( #16, #233, ( #101 ) ) ;
#57 = PERSON ( 'NEURÈENÝ', 'NEURÈENÝ', 'NEURÈENÝ', ('NEURÈENÝ'), ('NEURÈENÝ'), ('NEURÈENÝ') ) ;
#58 = CARTESIAN_POINT ( 'NONE',  ( 0.000000000000000000, 0.000000000000000000, 0.000000000000000000 ) ) ;
#59 = AXIS2_PLACEMENT_3D ( 'NONE', #131, #90, #80 ) ;
#60 = APPROVAL_STATUS ( 'not_yet_approved' ) ;
#61 = PERSON_AND_ORGANIZATION ( #57, #72 ) ;
#62 = CARTESIAN_POINT ( 'NONE',  ( 0.000000000000000000, 0.000000000000000000, 253.0000000000000000 ) ) ;
#63 = CALENDAR_DATE ( 2022, 7, 7 ) ;
#64 = VERTEX_POINT ( 'NONE', #168 ) ;
#65 = EDGE_LOOP ( 'NONE', ( #120, #194 ) ) ;
#66 = VERTEX_POINT ( 'NONE', #135 ) ;
#67 = EDGE_CURVE ( 'NONE', #42, #198, #126, .T. ) ;
#68 = EDGE_CURVE ( 'NONE', #84, #8, #83, .T. ) ;
#69 = MANIFOLD_SOLID_BREP ( 'Pøidat vysunutím3', #181 ) ;
#70 = EDGE_CURVE ( 'NONE', #64, #198, #76, .T. ) ;
#71 = ORIENTED_EDGE ( 'NONE', *, *, #170, .T. ) ;
#72 = ORGANIZATION ( 'NEURÈENÝ', 'NEURÈENÝ', '' ) ;
#73 = UNCERTAINTY_MEASURE_WITH_UNIT (LENGTH_MEASURE( 1.000000000000000082E-05 ), #169, 'distance_accuracy_value', 'NONE');
#74 = CARTESIAN_POINT ( 'NONE',  ( 0.000000000000000000, 0.000000000000000000, 3.000000000000000000 ) ) ;
#75 = DIRECTION ( 'NONE',  ( 1.000000000000000000, 0.000000000000000000, 0.000000000000000000 ) ) ;
#76 = LINE ( 'NONE', #232, #81 ) ;
#77 = FACE_OUTER_BOUND ( 'NONE', #2, .T. ) ;
#78 = CARTESIAN_POINT ( 'NONE',  ( 4.000000000000000000, 4.898587196589412829E-16, 3.000000000000000000 ) ) ;
#79 =( NAMED_UNIT ( * ) PLANE_ANGLE_UNIT ( ) SI_UNIT ( $, .RADIAN. ) );
#80 = DIRECTION ( 'NONE',  ( -1.000000000000000000, 0.000000000000000000, 0.000000000000000000 ) ) ;
#81 = VECTOR ( 'NONE', #108, 1000.000000000000000 ) ;
#82 = PERSON_AND_ORGANIZATION ( #57, #72 ) ;
#83 = CIRCLE ( 'NONE', #145, 4.000000000000000000 ) ;
#84 = VERTEX_POINT ( 'NONE', #78 ) ;
#85 = AXIS2_PLACEMENT_3D ( 'NONE', #37, #95, #49 ) ;
#86 = VERTEX_POINT ( 'NONE', #154 ) ;
#87 = APPROVAL ( #242, 'NEURÈENÝ' ) ;
#88 = AXIS2_PLACEMENT_3D ( 'NONE', #253, #54, #3 ) ;
#89 = CYLINDRICAL_SURFACE ( 'NONE', #200, 4.000000000000000000 ) ;
#90 = DIRECTION ( 'NONE',  ( -0.000000000000000000, -0.000000000000000000, -1.000000000000000000 ) ) ;
#91 = FACE_OUTER_BOUND ( 'NONE', #65, .T. ) ;
#92 = CARTESIAN_POINT ( 'NONE',  ( 0.000000000000000000, 0.000000000000000000, 3.000000000000000000 ) ) ;
#93 = APPLICATION_PROTOCOL_DEFINITION ( 'international standard', 'config_control_design', 1994, #46 ) ;
#94 = PERSON_AND_ORGANIZATION ( #57, #72 ) ;
#95 = DIRECTION ( 'NONE',  ( 0.000000000000000000, 0.000000000000000000, 1.000000000000000000 ) ) ;
#96 = CARTESIAN_POINT ( 'NONE',  ( 4.000000000000000000, 4.898587196589412829E-16, 3.000000000000000000 ) ) ;
#97 = EDGE_CURVE ( 'NONE', #64, #86, #14, .T. ) ;
#98 = PERSON_AND_ORGANIZATION_ROLE ( 'classification_officer' ) ;
#99 = FACE_BOUND ( 'NONE', #243, .T. ) ;
#100 = DATE_AND_TIME ( #63, #191 ) ;
#101 = PRODUCT ( '9331', '9331', '', ( #186 ) ) ;
#102 = ADVANCED_FACE ( 'NONE', ( #249 ), #157, .T. ) ;
#103 = DATE_AND_TIME ( #217, #109 ) ;
#104 = ORIENTED_EDGE ( 'NONE', *, *, #129, .T. ) ;
#105 = EDGE_LOOP ( 'NONE', ( #43, #147 ) ) ;
#106 = CIRCLE ( 'NONE', #148, 2.000000000000000000 ) ;
#107 = EDGE_CURVE ( 'NONE', #86, #42, #152, .T. ) ;
#108 = DIRECTION ( 'NONE',  ( -0.000000000000000000, -0.000000000000000000, -1.000000000000000000 ) ) ;
#109 = LOCAL_TIME ( 19, 51, 37.00000000000000000, #115 ) ;
#110 = CARTESIAN_POINT ( 'NONE',  ( -4.000000000000000000, 0.000000000000000000, 0.000000000000000000 ) ) ;
#111 = DIRECTION ( 'NONE',  ( 0.000000000000000000, 0.000000000000000000, 1.000000000000000000 ) ) ;
#112 = APPROVAL_DATE_TIME ( #178, #209 ) ;
#113 = DIRECTION ( 'NONE',  ( 1.000000000000000000, 0.000000000000000000, 0.000000000000000000 ) ) ;
#114 = DIRECTION ( 'NONE',  ( 1.000000000000000000, 0.000000000000000000, 0.000000000000000000 ) ) ;
#115 = COORDINATED_UNIVERSAL_TIME_OFFSET ( 1, 0, .AHEAD. ) ;
#116 = APPROVAL ( #60, 'NEURÈENÝ' ) ;
#117 = APPROVAL_PERSON_ORGANIZATION ( #82, #87, #197 ) ;
#118 = DIRECTION ( 'NONE',  ( -1.000000000000000000, 0.000000000000000000, 0.000000000000000000 ) ) ;
#119 = PERSON_AND_ORGANIZATION ( #57, #72 ) ;
#120 = ORIENTED_EDGE ( 'NONE', *, *, #162, .F. ) ;
#121 = DIRECTION ( 'NONE',  ( 0.000000000000000000, 0.000000000000000000, 1.000000000000000000 ) ) ;
#122 = APPROVAL_ROLE ( '' ) ;
#123 = COORDINATED_UNIVERSAL_TIME_OFFSET ( 1, 0, .AHEAD. ) ;
#124 = ORIENTED_EDGE ( 'NONE', *, *, #160, .F. ) ;
#125 = PRODUCT_DEFINITION_FORMATION_WITH_SPECIFIED_SOURCE ( 'LIBOVOLNÝ', '', #101, .NOT_KNOWN. ) ;
#126 = CIRCLE ( 'NONE', #85, 2.000000000000000000 ) ;
#127 = CC_DESIGN_APPROVAL ( #116, ( #125 ) ) ;
#128 = ORIENTED_EDGE ( 'NONE', *, *, #143, .T. ) ;
#129 = EDGE_CURVE ( 'NONE', #66, #24, #151, .T. ) ;
#130 = DIRECTION ( 'NONE',  ( 1.000000000000000000, 0.000000000000000000, 0.000000000000000000 ) ) ;
#131 = CARTESIAN_POINT ( 'NONE',  ( 0.000000000000000000, 0.000000000000000000, 253.0000000000000000 ) ) ;
#132 =( GEOMETRIC_REPRESENTATION_CONTEXT ( 3 ) GLOBAL_UNCERTAINTY_ASSIGNED_CONTEXT ( ( #73 ) ) GLOBAL_UNIT_ASSIGNED_CONTEXT ( ( #169, #79, #192 ) ) REPRESENTATION_CONTEXT ( 'NONE', 'WORKASPACE' ) );
#133 = CARTESIAN_POINT ( 'NONE',  ( 0.000000000000000000, 0.000000000000000000, 0.000000000000000000 ) ) ;
#134 = PLANE ( 'NONE',  #254 ) ;
#135 = CARTESIAN_POINT ( 'NONE',  ( 4.000000000000000000, 4.898587196589412829E-16, 0.000000000000000000 ) ) ;
#136 = PLANE ( 'NONE',  #238 ) ;
#137 = PERSON_AND_ORGANIZATION ( #57, #72 ) ;
#138 = APPROVAL_DATE_TIME ( #103, #116 ) ;
#139 = PLANE ( 'NONE',  #182 ) ;
#140 = ORIENTED_EDGE ( 'NONE', *, *, #67, .F. ) ;
#141 = AXIS2_PLACEMENT_3D ( 'NONE', #74, #205, #208 ) ;
#142 = COORDINATED_UNIVERSAL_TIME_OFFSET ( 1, 0, .AHEAD. ) ;
#143 = EDGE_CURVE ( 'NONE', #198, #42, #48, .T. ) ;
#144 = APPROVAL_PERSON_ORGANIZATION ( #119, #116, #23 ) ;
#145 = AXIS2_PLACEMENT_3D ( 'NONE', #15, #206, #156 ) ;
#146 = ADVANCED_FACE ( 'NONE', ( #226 ), #89, .T. ) ;
#147 = ORIENTED_EDGE ( 'NONE', *, *, #68, .T. ) ;
#148 = AXIS2_PLACEMENT_3D ( 'NONE', #36, #13, #130 ) ;
#149 = CIRCLE ( 'NONE', #88, 4.000000000000000000 ) ;
#150 = DIRECTION ( 'NONE',  ( -0.000000000000000000, -0.000000000000000000, -1.000000000000000000 ) ) ;
#151 = CIRCLE ( 'NONE', #164, 4.000000000000000000 ) ;
#152 = LINE ( 'NONE', #184, #34 ) ;
#153 = CC_DESIGN_DATE_AND_TIME_ASSIGNMENT ( #100, #39, ( #199 ) ) ;
#154 = CARTESIAN_POINT ( 'NONE',  ( -2.000000000000000000, 0.000000000000000000, 253.0000000000000000 ) ) ;
#155 = DIRECTION ( 'NONE',  ( 0.000000000000000000, 0.000000000000000000, 1.000000000000000000 ) ) ;
#156 = DIRECTION ( 'NONE',  ( 1.000000000000000000, 0.000000000000000000, 0.000000000000000000 ) ) ;
#157 = CYLINDRICAL_SURFACE ( 'NONE', #141, 4.000000000000000000 ) ;
#158 = APPLICATION_PROTOCOL_DEFINITION ( 'international standard', 'config_control_design', 1994, #21 ) ;
#159 = CARTESIAN_POINT ( 'NONE',  ( 0.000000000000000000, 0.000000000000000000, 3.000000000000000000 ) ) ;
#160 = EDGE_CURVE ( 'NONE', #8, #24, #230, .T. ) ;
#161 = ORIENTED_EDGE ( 'NONE', *, *, #162, .T. ) ;
#162 = EDGE_CURVE ( 'NONE', #24, #66, #225, .T. ) ;
#163 = ORIENTED_EDGE ( 'NONE', *, *, #227, .F. ) ;
#164 = AXIS2_PLACEMENT_3D ( 'NONE', #235, #211, #12 ) ;
#165 = ORIENTED_EDGE ( 'NONE', *, *, #97, .F. ) ;
#166 = DESIGN_CONTEXT ( 'detailed design', #46, 'design' ) ;
#167 = CARTESIAN_POINT ( 'NONE',  ( -4.000000000000000000, 0.000000000000000000, 3.000000000000000000 ) ) ;
#168 = CARTESIAN_POINT ( 'NONE',  ( 2.000000000000000000, 2.449293598294706414E-16, 253.0000000000000000 ) ) ;
#169 =( LENGTH_UNIT ( ) NAMED_UNIT ( * ) SI_UNIT ( .MILLI., .METRE. ) );
#170 = EDGE_CURVE ( 'NONE', #84, #66, #252, .T. ) ;
#171 = DIRECTION ( 'NONE',  ( 1.000000000000000000, 0.000000000000000000, 0.000000000000000000 ) ) ;
#172 = DIRECTION ( 'NONE',  ( -0.000000000000000000, -0.000000000000000000, -1.000000000000000000 ) ) ;
#173 = DIRECTION ( 'NONE',  ( 0.000000000000000000, 0.000000000000000000, 1.000000000000000000 ) ) ;
#174 = DIRECTION ( 'NONE',  ( 1.000000000000000000, 0.000000000000000000, -0.000000000000000000 ) ) ;
#175 = DATE_TIME_ROLE ( 'creation_date' ) ;
#176 = ORIENTED_EDGE ( 'NONE', *, *, #107, .F. ) ;
#177 = DIRECTION ( 'NONE',  ( 0.000000000000000000, 0.000000000000000000, 1.000000000000000000 ) ) ;
#178 = DATE_AND_TIME ( #193, #53 ) ;
#179 = PRODUCT_DEFINITION_SHAPE ( 'NONE', 'NONE',  #1 ) ;
#180 = ORIENTED_EDGE ( 'NONE', *, *, #143, .F. ) ;
#181 = CLOSED_SHELL ( 'NONE', ( #25, #146, #102, #229, #246, #244, #187 ) ) ;
#182 = AXIS2_PLACEMENT_3D ( 'NONE', #58, #177, #174 ) ;
#183 = CC_DESIGN_PERSON_AND_ORGANIZATION_ASSIGNMENT ( #61, #4, ( #125 ) ) ;
#184 = CARTESIAN_POINT ( 'NONE',  ( -2.000000000000000000, 0.000000000000000000, 253.0000000000000000 ) ) ;
#185 = DIRECTION ( 'NONE',  ( 0.000000000000000000, 0.000000000000000000, 1.000000000000000000 ) ) ;
#186 = MECHANICAL_CONTEXT ( 'NONE', #21, 'mechanical' ) ;
#187 = ADVANCED_FACE ( 'NONE', ( #77 ), #134, .T. ) ;
#188 = CALENDAR_DATE ( 2022, 7, 7 ) ;
#189 = CARTESIAN_POINT ( 'NONE',  ( -4.000000000000000000, 0.000000000000000000, 3.000000000000000000 ) ) ;
#190 = FACE_OUTER_BOUND ( 'NONE', #221, .T. ) ;
#191 = LOCAL_TIME ( 19, 51, 37.00000000000000000, #123 ) ;
#192 =( NAMED_UNIT ( * ) SI_UNIT ( $, .STERADIAN. ) SOLID_ANGLE_UNIT ( ) );
#193 = CALENDAR_DATE ( 2022, 7, 7 ) ;
#194 = ORIENTED_EDGE ( 'NONE', *, *, #129, .F. ) ;
#195 = FACE_OUTER_BOUND ( 'NONE', #105, .T. ) ;
#196 = SHAPE_DEFINITION_REPRESENTATION ( #179, #45 ) ;
#197 = APPROVAL_ROLE ( '' ) ;
#198 = VERTEX_POINT ( 'NONE', #237 ) ;
#199 = SECURITY_CLASSIFICATION ( '', '', #213 ) ;
#200 = AXIS2_PLACEMENT_3D ( 'NONE', #92, #228, #50 ) ;
#201 = AXIS2_PLACEMENT_3D ( 'NONE', #133, #111, #171 ) ;
#202 = CC_DESIGN_SECURITY_CLASSIFICATION ( #199, ( #125 ) ) ;
#203 = EDGE_LOOP ( 'NONE', ( #33, #71, #104, #124 ) ) ;
#204 = CC_DESIGN_APPROVAL ( #87, ( #199 ) ) ;
#205 = DIRECTION ( 'NONE',  ( -0.000000000000000000, -0.000000000000000000, -1.000000000000000000 ) ) ;
#206 = DIRECTION ( 'NONE',  ( 0.000000000000000000, 0.000000000000000000, 1.000000000000000000 ) ) ;
#207 = AXIS2_PLACEMENT_3D ( 'NONE', #20, #26, #118 ) ;
#208 = DIRECTION ( 'NONE',  ( -1.000000000000000000, 0.000000000000000000, 0.000000000000000000 ) ) ;
#209 = APPROVAL ( #5, 'NEURÈENÝ' ) ;
#210 = DIRECTION ( 'NONE',  ( 1.000000000000000000, 0.000000000000000000, -0.000000000000000000 ) ) ;
#211 = DIRECTION ( 'NONE',  ( 0.000000000000000000, 0.000000000000000000, 1.000000000000000000 ) ) ;
#212 = PERSON_AND_ORGANIZATION ( #57, #72 ) ;
#213 = SECURITY_CLASSIFICATION_LEVEL ( 'unclassified' ) ;
#214 = CARTESIAN_POINT ( 'NONE',  ( 0.000000000000000000, 0.000000000000000000, 0.000000000000000000 ) ) ;
#215 = ORIENTED_EDGE ( 'NONE', *, *, #107, .T. ) ;
#216 = DIRECTION ( 'NONE',  ( 1.000000000000000000, 0.000000000000000000, -0.000000000000000000 ) ) ;
#217 = CALENDAR_DATE ( 2022, 7, 7 ) ;
#218 = ORIENTED_EDGE ( 'NONE', *, *, #11, .F. ) ;
#219 = PERSON_AND_ORGANIZATION_ROLE ( 'creator' ) ;
#220 = ORIENTED_EDGE ( 'NONE', *, *, #67, .T. ) ;
#221 = EDGE_LOOP ( 'NONE', ( #241, #218, #215, #220 ) ) ;
#222 = CC_DESIGN_PERSON_AND_ORGANIZATION_ASSIGNMENT ( #94, #98, ( #199 ) ) ;
#223 = AXIS2_PLACEMENT_3D ( 'NONE', #38, #185, #113 ) ;
#224 = CC_DESIGN_DATE_AND_TIME_ASSIGNMENT ( #17, #175, ( #1 ) ) ;
#225 = CIRCLE ( 'NONE', #201, 4.000000000000000000 ) ;
#226 = FACE_OUTER_BOUND ( 'NONE', #203, .T. ) ;
#227 = EDGE_CURVE ( 'NONE', #8, #84, #149, .T. ) ;
#228 = DIRECTION ( 'NONE',  ( -0.000000000000000000, -0.000000000000000000, -1.000000000000000000 ) ) ;
#229 = ADVANCED_FACE ( 'NONE', ( #99, #195 ), #136, .T. ) ;
#230 = LINE ( 'NONE', #189, #51 ) ;
#231 = DIRECTION ( 'NONE',  ( 0.000000000000000000, 0.000000000000000000, 1.000000000000000000 ) ) ;
#232 = CARTESIAN_POINT ( 'NONE',  ( 2.000000000000000000, 2.449293598294706414E-16, 253.0000000000000000 ) ) ;
#233 = PERSON_AND_ORGANIZATION_ROLE ( 'design_owner' ) ;
#234 = COORDINATED_UNIVERSAL_TIME_OFFSET ( 1, 0, .AHEAD. ) ;
#235 = CARTESIAN_POINT ( 'NONE',  ( 0.000000000000000000, 0.000000000000000000, 0.000000000000000000 ) ) ;
#236 = DATE_AND_TIME ( #6, #240 ) ;
#237 = CARTESIAN_POINT ( 'NONE',  ( 2.000000000000000000, 2.449293598294706414E-16, 3.000000000000000000 ) ) ;
#238 = AXIS2_PLACEMENT_3D ( 'NONE', #159, #121, #216 ) ;
#239 = COORDINATED_UNIVERSAL_TIME_OFFSET ( 1, 0, .AHEAD. ) ;
#240 = LOCAL_TIME ( 19, 51, 37.00000000000000000, #234 ) ;
#241 = ORIENTED_EDGE ( 'NONE', *, *, #70, .F. ) ;
#242 = APPROVAL_STATUS ( 'not_yet_approved' ) ;
#243 = EDGE_LOOP ( 'NONE', ( #140, #180 ) ) ;
#244 = ADVANCED_FACE ( 'NONE', ( #190 ), #22, .T. ) ;
#245 = EDGE_LOOP ( 'NONE', ( #10, #163, #29, #161 ) ) ;
#246 = ADVANCED_FACE ( 'NONE', ( #91 ), #139, .F. ) ;
#247 = CARTESIAN_POINT ( 'NONE',  ( 0.000000000000000000, 0.000000000000000000, 253.0000000000000000 ) ) ;
#248 = CC_DESIGN_APPROVAL ( #209, ( #1 ) ) ;
#249 = FACE_OUTER_BOUND ( 'NONE', #245, .T. ) ;
#250 = AXIS2_PLACEMENT_3D ( 'NONE', #247, #173, #75 ) ;
#251 = ORIENTED_EDGE ( 'NONE', *, *, #97, .T. ) ;
#252 = LINE ( 'NONE', #96, #9 ) ;
#253 = CARTESIAN_POINT ( 'NONE',  ( 0.000000000000000000, 0.000000000000000000, 3.000000000000000000 ) ) ;
#254 = AXIS2_PLACEMENT_3D ( 'NONE', #62, #231, #210 ) ;
#255 = APPROVAL_PERSON_ORGANIZATION ( #212, #209, #122 ) ;
ENDSEC;
END-ISO-10303-21;
