ISO-10303-21;
HEADER;
FILE_DESCRIPTION (( 'STEP AP203' ),
    '1' );
FILE_NAME ('1e9e.STEP',
    '2023-02-13T11:36:20',
    ( '' ),
    ( '' ),
    'SwSTEP 2.0',
    'SolidWorks 2019',
    '' );
FILE_SCHEMA (( 'CONFIG_CONTROL_DESIGN' ));
ENDSEC;

DATA;
#1 = CARTESIAN_POINT ( 'NONE',  ( -6.500000000000000888, 0.000000000000000000, 160.0000000000000000 ) ) ;
#2 = CARTESIAN_POINT ( 'NONE',  ( 6.500000000000000888, 7.960204194457796463E-16, 160.0000000000000000 ) ) ;
#3 = ADVANCED_FACE ( 'NONE', ( #143, #25 ), #224, .T. ) ;
#4 = FACE_OUTER_BOUND ( 'NONE', #162, .T. ) ;
#5 = DIRECTION ( 'NONE',  ( -0.000000000000000000, -0.000000000000000000, -1.000000000000000000 ) ) ;
#6 = APPROVAL_ROLE ( '' ) ;
#7 = LINE ( 'NONE', #175, #248 ) ;
#8 = DIRECTION ( 'NONE',  ( 0.000000000000000000, 0.000000000000000000, 1.000000000000000000 ) ) ;
#9 = APPROVAL ( #180, 'NEURÈENÝ' ) ;
#10 = VECTOR ( 'NONE', #140, 1000.000000000000000 ) ;
#11 = AXIS2_PLACEMENT_3D ( 'NONE', #144, #100, #45 ) ;
#12 = CALENDAR_DATE ( 2023, 13, 2 ) ;
#13 = ORIENTED_EDGE ( 'NONE', *, *, #123, .T. ) ;
#14 = DATE_AND_TIME ( #12, #252 ) ;
#15 = ORIENTED_EDGE ( 'NONE', *, *, #108, .F. ) ;
#16 = EDGE_CURVE ( 'NONE', #98, #19, #105, .T. ) ;
#17 = PERSON_AND_ORGANIZATION ( #220, #109 ) ;
#18 = ORIENTED_EDGE ( 'NONE', *, *, #197, .F. ) ;
#19 = VERTEX_POINT ( 'NONE', #168 ) ;
#20 = ADVANCED_BREP_SHAPE_REPRESENTATION ( '1e9e', ( #196, #159 ), #75 ) ;
#21 = CC_DESIGN_PERSON_AND_ORGANIZATION_ASSIGNMENT ( #17, #133, ( #247 ) ) ;
#22 = DIRECTION ( 'NONE',  ( -0.000000000000000000, -0.000000000000000000, -1.000000000000000000 ) ) ;
#23 = LOCAL_TIME ( 12, 36, 19.00000000000000000, #113 ) ;
#24 = DIRECTION ( 'NONE',  ( -1.000000000000000000, 0.000000000000000000, 0.000000000000000000 ) ) ;
#25 = FACE_OUTER_BOUND ( 'NONE', #97, .T. ) ;
#26 = CARTESIAN_POINT ( 'NONE',  ( 0.000000000000000000, 0.000000000000000000, 7.000000000000000000 ) ) ;
#27 = ORIENTED_EDGE ( 'NONE', *, *, #68, .F. ) ;
#28 = CC_DESIGN_PERSON_AND_ORGANIZATION_ASSIGNMENT ( #212, #30, ( #55 ) ) ;
#29 = CARTESIAN_POINT ( 'NONE',  ( -6.500000000000000888, 0.000000000000000000, 160.0000000000000000 ) ) ;
#30 = PERSON_AND_ORGANIZATION_ROLE ( 'design_owner' ) ;
#31 = CC_DESIGN_APPROVAL ( #99, ( #247 ) ) ;
#32 = PLANE ( 'NONE',  #101 ) ;
#33 = DATE_TIME_ROLE ( 'creation_date' ) ;
#34 = PERSON_AND_ORGANIZATION ( #220, #109 ) ;
#35 = VERTEX_POINT ( 'NONE', #223 ) ;
#36 = CALENDAR_DATE ( 2023, 13, 2 ) ;
#37 = VERTEX_POINT ( 'NONE', #244 ) ;
#38 = AXIS2_PLACEMENT_3D ( 'NONE', #60, #42, #226 ) ;
#39 = AXIS2_PLACEMENT_3D ( 'NONE', #87, #199, #67 ) ;
#40 = DATE_AND_TIME ( #36, #23 ) ;
#41 = ORIENTED_EDGE ( 'NONE', *, *, #197, .T. ) ;
#42 = DIRECTION ( 'NONE',  ( -0.000000000000000000, -0.000000000000000000, -1.000000000000000000 ) ) ;
#43 = CARTESIAN_POINT ( 'NONE',  ( 11.00000000000000000, 1.347111479062088405E-15, 0.000000000000000000 ) ) ;
#44 = APPROVAL ( #71, 'NEURÈENÝ' ) ;
#45 = DIRECTION ( 'NONE',  ( 1.000000000000000000, 0.000000000000000000, 0.000000000000000000 ) ) ;
#46 = DIRECTION ( 'NONE',  ( 0.000000000000000000, 0.000000000000000000, 1.000000000000000000 ) ) ;
#47 = DIRECTION ( 'NONE',  ( 0.000000000000000000, 0.000000000000000000, 1.000000000000000000 ) ) ;
#48 = FACE_OUTER_BOUND ( 'NONE', #178, .T. ) ;
#49 = APPROVAL_ROLE ( '' ) ;
#50 = ADVANCED_FACE ( 'NONE', ( #4 ), #205, .T. ) ;
#51 = CIRCLE ( 'NONE', #92, 11.00000000000000000 ) ;
#52 = APPROVAL_PERSON_ORGANIZATION ( #193, #99, #6 ) ;
#53 = CARTESIAN_POINT ( 'NONE',  ( 6.500000000000000888, 7.960204194457796463E-16, 7.000000000000000000 ) ) ;
#54 = ORIENTED_EDGE ( 'NONE', *, *, #123, .F. ) ;
#55 = PRODUCT ( '1e9e', '1e9e', '', ( #126 ) ) ;
#56 = ORIENTED_EDGE ( 'NONE', *, *, #192, .F. ) ;
#57 = PERSON_AND_ORGANIZATION_ROLE ( 'classification_officer' ) ;
#58 = ORIENTED_EDGE ( 'NONE', *, *, #154, .F. ) ;
#59 = ORIENTED_EDGE ( 'NONE', *, *, #112, .T. ) ;
#60 = CARTESIAN_POINT ( 'NONE',  ( 0.000000000000000000, 0.000000000000000000, 7.000000000000000000 ) ) ;
#61 = DIRECTION ( 'NONE',  ( 1.000000000000000000, 0.000000000000000000, -0.000000000000000000 ) ) ;
#62 = EDGE_CURVE ( 'NONE', #35, #94, #51, .T. ) ;
#63 = FACE_OUTER_BOUND ( 'NONE', #253, .T. ) ;
#64 = SECURITY_CLASSIFICATION ( '', '', #155 ) ;
#65 = CARTESIAN_POINT ( 'NONE',  ( 0.000000000000000000, 0.000000000000000000, 160.0000000000000000 ) ) ;
#66 = DIRECTION ( 'NONE',  ( -1.000000000000000000, 0.000000000000000000, 0.000000000000000000 ) ) ;
#67 = DIRECTION ( 'NONE',  ( 1.000000000000000000, 0.000000000000000000, -0.000000000000000000 ) ) ;
#68 = EDGE_CURVE ( 'NONE', #37, #222, #243, .T. ) ;
#69 = APPROVAL_DATE_TIME ( #176, #44 ) ;
#70 = AXIS2_PLACEMENT_3D ( 'NONE', #82, #102, #66 ) ;
#71 = APPROVAL_STATUS ( 'not_yet_approved' ) ;
#72 = CARTESIAN_POINT ( 'NONE',  ( 0.000000000000000000, 0.000000000000000000, 7.000000000000000000 ) ) ;
#73 = APPROVAL_STATUS ( 'not_yet_approved' ) ;
#74 = CIRCLE ( 'NONE', #11, 11.00000000000000000 ) ;
#75 =( GEOMETRIC_REPRESENTATION_CONTEXT ( 3 ) GLOBAL_UNCERTAINTY_ASSIGNED_CONTEXT ( ( #163 ) ) GLOBAL_UNIT_ASSIGNED_CONTEXT ( ( #194, #86, #214 ) ) REPRESENTATION_CONTEXT ( 'NONE', 'WORKASPACE' ) );
#76 = PERSON_AND_ORGANIZATION ( #220, #109 ) ;
#77 = ORIENTED_EDGE ( 'NONE', *, *, #203, .F. ) ;
#78 = CC_DESIGN_APPROVAL ( #44, ( #219 ) ) ;
#79 = ORIENTED_EDGE ( 'NONE', *, *, #192, .T. ) ;
#80 = COORDINATED_UNIVERSAL_TIME_OFFSET ( 1, 0, .AHEAD. ) ;
#81 = LOCAL_TIME ( 12, 36, 19.00000000000000000, #110 ) ;
#82 = CARTESIAN_POINT ( 'NONE',  ( 0.000000000000000000, 0.000000000000000000, 160.0000000000000000 ) ) ;
#83 = DIRECTION ( 'NONE',  ( 1.000000000000000000, 0.000000000000000000, 0.000000000000000000 ) ) ;
#84 = CARTESIAN_POINT ( 'NONE',  ( 0.000000000000000000, 0.000000000000000000, 160.0000000000000000 ) ) ;
#85 = CARTESIAN_POINT ( 'NONE',  ( 0.000000000000000000, 0.000000000000000000, 7.000000000000000000 ) ) ;
#86 =( NAMED_UNIT ( * ) PLANE_ANGLE_UNIT ( ) SI_UNIT ( $, .RADIAN. ) );
#87 = CARTESIAN_POINT ( 'NONE',  ( 0.000000000000000000, 0.000000000000000000, 160.0000000000000000 ) ) ;
#88 = AXIS2_PLACEMENT_3D ( 'NONE', #118, #22, #24 ) ;
#89 = ADVANCED_FACE ( 'NONE', ( #63 ), #124, .T. ) ;
#90 = APPLICATION_PROTOCOL_DEFINITION ( 'international standard', 'config_control_design', 1994, #117 ) ;
#91 = DATE_AND_TIME ( #151, #81 ) ;
#92 = AXIS2_PLACEMENT_3D ( 'NONE', #189, #47, #170 ) ;
#93 = ORIENTED_EDGE ( 'NONE', *, *, #16, .T. ) ;
#94 = VERTEX_POINT ( 'NONE', #43 ) ;
#95 = VERTEX_POINT ( 'NONE', #191 ) ;
#96 = ADVANCED_FACE ( 'NONE', ( #167 ), #164, .T. ) ;
#97 = EDGE_LOOP ( 'NONE', ( #79, #93 ) ) ;
#98 = VERTEX_POINT ( 'NONE', #209 ) ;
#99 = APPROVAL ( #73, 'NEURÈENÝ' ) ;
#100 = DIRECTION ( 'NONE',  ( 0.000000000000000000, 0.000000000000000000, 1.000000000000000000 ) ) ;
#101 = AXIS2_PLACEMENT_3D ( 'NONE', #195, #131, #111 ) ;
#102 = DIRECTION ( 'NONE',  ( -0.000000000000000000, -0.000000000000000000, -1.000000000000000000 ) ) ;
#103 = DIRECTION ( 'NONE',  ( 0.000000000000000000, 0.000000000000000000, 1.000000000000000000 ) ) ;
#104 = ORIENTED_EDGE ( 'NONE', *, *, #108, .T. ) ;
#105 = CIRCLE ( 'NONE', #206, 11.00000000000000000 ) ;
#106 = CC_DESIGN_SECURITY_CLASSIFICATION ( #64, ( #247 ) ) ;
#107 = LINE ( 'NONE', #1, #10 ) ;
#108 = EDGE_CURVE ( 'NONE', #94, #35, #74, .T. ) ;
#109 = ORGANIZATION ( 'NEURÈENÝ', 'NEURÈENÝ', '' ) ;
#110 = COORDINATED_UNIVERSAL_TIME_OFFSET ( 1, 0, .AHEAD. ) ;
#111 = DIRECTION ( 'NONE',  ( 1.000000000000000000, 0.000000000000000000, -0.000000000000000000 ) ) ;
#112 = EDGE_CURVE ( 'NONE', #98, #94, #241, .T. ) ;
#113 = COORDINATED_UNIVERSAL_TIME_OFFSET ( 1, 0, .AHEAD. ) ;
#114 = ORIENTED_EDGE ( 'NONE', *, *, #203, .T. ) ;
#115 = PERSON_AND_ORGANIZATION ( #220, #109 ) ;
#116 = ORIENTED_EDGE ( 'NONE', *, *, #62, .F. ) ;
#117 = APPLICATION_CONTEXT ( 'configuration controlled 3d designs of mechanical parts and assemblies' ) ;
#118 = CARTESIAN_POINT ( 'NONE',  ( 0.000000000000000000, 0.000000000000000000, 160.0000000000000000 ) ) ;
#119 = DIRECTION ( 'NONE',  ( 0.000000000000000000, 0.000000000000000000, 1.000000000000000000 ) ) ;
#120 = CIRCLE ( 'NONE', #129, 11.00000000000000000 ) ;
#121 = DIRECTION ( 'NONE',  ( -1.000000000000000000, 0.000000000000000000, 0.000000000000000000 ) ) ;
#122 = DIRECTION ( 'NONE',  ( 1.000000000000000000, 0.000000000000000000, 0.000000000000000000 ) ) ;
#123 = EDGE_CURVE ( 'NONE', #95, #222, #207, .T. ) ;
#124 = CYLINDRICAL_SURFACE ( 'NONE', #38, 11.00000000000000000 ) ;
#125 = CIRCLE ( 'NONE', #217, 6.500000000000000888 ) ;
#126 = MECHANICAL_CONTEXT ( 'NONE', #198, 'mechanical' ) ;
#127 = PERSON_AND_ORGANIZATION ( #220, #109 ) ;
#128 = AXIS2_PLACEMENT_3D ( 'NONE', #204, #225, #188 ) ;
#129 = AXIS2_PLACEMENT_3D ( 'NONE', #208, #171, #230 ) ;
#130 = COORDINATED_UNIVERSAL_TIME_OFFSET ( 1, 0, .AHEAD. ) ;
#131 = DIRECTION ( 'NONE',  ( 0.000000000000000000, 0.000000000000000000, 1.000000000000000000 ) ) ;
#132 = CC_DESIGN_DATE_AND_TIME_ASSIGNMENT ( #218, #254, ( #64 ) ) ;
#133 = PERSON_AND_ORGANIZATION_ROLE ( 'design_supplier' ) ;
#134 = LOCAL_TIME ( 12, 36, 19.00000000000000000, #80 ) ;
#135 = PRODUCT_RELATED_PRODUCT_CATEGORY ( 'detail', '', ( #55 ) ) ;
#136 = ORIENTED_EDGE ( 'NONE', *, *, #16, .F. ) ;
#137 = APPROVAL_DATE_TIME ( #14, #99 ) ;
#138 = APPROVAL_ROLE ( '' ) ;
#139 = EDGE_LOOP ( 'NONE', ( #54, #238, #182, #234 ) ) ;
#140 = DIRECTION ( 'NONE',  ( -0.000000000000000000, -0.000000000000000000, -1.000000000000000000 ) ) ;
#141 = PRODUCT_DEFINITION_SHAPE ( 'NONE', 'NONE',  #219 ) ;
#142 = CC_DESIGN_PERSON_AND_ORGANIZATION_ASSIGNMENT ( #127, #149, ( #219 ) ) ;
#143 = FACE_BOUND ( 'NONE', #156, .T. ) ;
#144 = CARTESIAN_POINT ( 'NONE',  ( 0.000000000000000000, 0.000000000000000000, 0.000000000000000000 ) ) ;
#145 = ORIENTED_EDGE ( 'NONE', *, *, #112, .F. ) ;
#146 = CARTESIAN_POINT ( 'NONE',  ( 11.00000000000000000, 1.347111479062088405E-15, 7.000000000000000000 ) ) ;
#147 = DIRECTION ( 'NONE',  ( 1.000000000000000000, 0.000000000000000000, 0.000000000000000000 ) ) ;
#148 = ADVANCED_FACE ( 'NONE', ( #185 ), #255, .T. ) ;
#149 = PERSON_AND_ORGANIZATION_ROLE ( 'creator' ) ;
#150 = CALENDAR_DATE ( 2023, 13, 2 ) ;
#151 = CALENDAR_DATE ( 2023, 13, 2 ) ;
#152 = CIRCLE ( 'NONE', #181, 6.500000000000000888 ) ;
#153 = CARTESIAN_POINT ( 'NONE',  ( 0.000000000000000000, 0.000000000000000000, 0.000000000000000000 ) ) ;
#154 = EDGE_CURVE ( 'NONE', #236, #37, #107, .T. ) ;
#155 = SECURITY_CLASSIFICATION_LEVEL ( 'unclassified' ) ;
#156 = EDGE_LOOP ( 'NONE', ( #27, #18 ) ) ;
#157 = EDGE_CURVE ( 'NONE', #95, #236, #125, .T. ) ;
#158 = SHAPE_DEFINITION_REPRESENTATION ( #141, #20 ) ;
#159 = AXIS2_PLACEMENT_3D ( 'NONE', #153, #8, #215 ) ;
#160 = ORIENTED_EDGE ( 'NONE', *, *, #62, .T. ) ;
#161 = CALENDAR_DATE ( 2023, 13, 2 ) ;
#162 = EDGE_LOOP ( 'NONE', ( #145, #56, #114, #160 ) ) ;
#163 = UNCERTAINTY_MEASURE_WITH_UNIT (LENGTH_MEASURE( 1.000000000000000082E-05 ), #194, 'distance_accuracy_value', 'NONE');
#164 = CYLINDRICAL_SURFACE ( 'NONE', #88, 6.500000000000000888 ) ;
#165 = AXIS2_PLACEMENT_3D ( 'NONE', #72, #246, #147 ) ;
#166 = DIRECTION ( 'NONE',  ( 0.000000000000000000, 0.000000000000000000, 1.000000000000000000 ) ) ;
#167 = FACE_OUTER_BOUND ( 'NONE', #239, .T. ) ;
#168 = CARTESIAN_POINT ( 'NONE',  ( -11.00000000000000000, 0.000000000000000000, 7.000000000000000000 ) ) ;
#169 = AXIS2_PLACEMENT_3D ( 'NONE', #245, #103, #61 ) ;
#170 = DIRECTION ( 'NONE',  ( 1.000000000000000000, 0.000000000000000000, 0.000000000000000000 ) ) ;
#171 = DIRECTION ( 'NONE',  ( 0.000000000000000000, 0.000000000000000000, 1.000000000000000000 ) ) ;
#172 = COORDINATED_UNIVERSAL_TIME_OFFSET ( 1, 0, .AHEAD. ) ;
#173 = CIRCLE ( 'NONE', #165, 6.500000000000000888 ) ;
#174 = AXIS2_PLACEMENT_3D ( 'NONE', #85, #242, #121 ) ;
#175 = CARTESIAN_POINT ( 'NONE',  ( -11.00000000000000000, 0.000000000000000000, 7.000000000000000000 ) ) ;
#176 = DATE_AND_TIME ( #150, #229 ) ;
#177 = CC_DESIGN_PERSON_AND_ORGANIZATION_ASSIGNMENT ( #76, #237, ( #247 ) ) ;
#178 = EDGE_LOOP ( 'NONE', ( #116, #15 ) ) ;
#179 = EDGE_CURVE ( 'NONE', #236, #95, #152, .T. ) ;
#180 = APPROVAL_STATUS ( 'not_yet_approved' ) ;
#181 = AXIS2_PLACEMENT_3D ( 'NONE', #65, #46, #122 ) ;
#182 = ORIENTED_EDGE ( 'NONE', *, *, #154, .T. ) ;
#183 = EDGE_LOOP ( 'NONE', ( #202, #235 ) ) ;
#184 = CC_DESIGN_DATE_AND_TIME_ASSIGNMENT ( #91, #33, ( #219 ) ) ;
#185 = FACE_OUTER_BOUND ( 'NONE', #139, .T. ) ;
#186 = DESIGN_CONTEXT ( 'detailed design', #117, 'design' ) ;
#187 = DIRECTION ( 'NONE',  ( -0.000000000000000000, -0.000000000000000000, -1.000000000000000000 ) ) ;
#188 = DIRECTION ( 'NONE',  ( 1.000000000000000000, 0.000000000000000000, 0.000000000000000000 ) ) ;
#189 = CARTESIAN_POINT ( 'NONE',  ( 0.000000000000000000, 0.000000000000000000, 0.000000000000000000 ) ) ;
#190 = VECTOR ( 'NONE', #5, 1000.000000000000000 ) ;
#191 = CARTESIAN_POINT ( 'NONE',  ( 6.500000000000000888, 7.960204194457796463E-16, 160.0000000000000000 ) ) ;
#192 = EDGE_CURVE ( 'NONE', #19, #98, #120, .T. ) ;
#193 = PERSON_AND_ORGANIZATION ( #220, #109 ) ;
#194 =( LENGTH_UNIT ( ) NAMED_UNIT ( * ) SI_UNIT ( .MILLI., .METRE. ) );
#195 = CARTESIAN_POINT ( 'NONE',  ( 0.000000000000000000, 0.000000000000000000, 0.000000000000000000 ) ) ;
#196 = MANIFOLD_SOLID_BREP ( 'Pøidat vysunutím3', #210 ) ;
#197 = EDGE_CURVE ( 'NONE', #222, #37, #173, .T. ) ;
#198 = APPLICATION_CONTEXT ( 'configuration controlled 3d designs of mechanical parts and assemblies' ) ;
#199 = DIRECTION ( 'NONE',  ( 0.000000000000000000, 0.000000000000000000, 1.000000000000000000 ) ) ;
#200 = APPROVAL_PERSON_ORGANIZATION ( #250, #44, #49 ) ;
#201 = ORIENTED_EDGE ( 'NONE', *, *, #157, .F. ) ;
#202 = ORIENTED_EDGE ( 'NONE', *, *, #179, .T. ) ;
#203 = EDGE_CURVE ( 'NONE', #19, #35, #7, .T. ) ;
#204 = CARTESIAN_POINT ( 'NONE',  ( 0.000000000000000000, 0.000000000000000000, 7.000000000000000000 ) ) ;
#205 = CYLINDRICAL_SURFACE ( 'NONE', #174, 11.00000000000000000 ) ;
#206 = AXIS2_PLACEMENT_3D ( 'NONE', #26, #119, #227 ) ;
#207 = LINE ( 'NONE', #2, #190 ) ;
#208 = CARTESIAN_POINT ( 'NONE',  ( 0.000000000000000000, 0.000000000000000000, 7.000000000000000000 ) ) ;
#209 = CARTESIAN_POINT ( 'NONE',  ( 11.00000000000000000, 1.347111479062088405E-15, 7.000000000000000000 ) ) ;
#210 = CLOSED_SHELL ( 'NONE', ( #96, #89, #50, #3, #228, #148, #240 ) ) ;
#211 = FACE_OUTER_BOUND ( 'NONE', #183, .T. ) ;
#212 = PERSON_AND_ORGANIZATION ( #220, #109 ) ;
#213 = CC_DESIGN_APPROVAL ( #9, ( #64 ) ) ;
#214 =( NAMED_UNIT ( * ) SI_UNIT ( $, .STERADIAN. ) SOLID_ANGLE_UNIT ( ) );
#215 = DIRECTION ( 'NONE',  ( 1.000000000000000000, 0.000000000000000000, 0.000000000000000000 ) ) ;
#216 = APPROVAL_DATE_TIME ( #40, #9 ) ;
#217 = AXIS2_PLACEMENT_3D ( 'NONE', #84, #166, #83 ) ;
#218 = DATE_AND_TIME ( #161, #134 ) ;
#219 = PRODUCT_DEFINITION ( 'NEZNÁMÝ', '', #247, #186 ) ;
#220 = PERSON ( 'NEURÈENÝ', 'NEURÈENÝ', 'NEURÈENÝ', ('NEURÈENÝ'), ('NEURÈENÝ'), ('NEURÈENÝ') ) ;
#221 = APPROVAL_PERSON_ORGANIZATION ( #115, #9, #138 ) ;
#222 = VERTEX_POINT ( 'NONE', #53 ) ;
#223 = CARTESIAN_POINT ( 'NONE',  ( -11.00000000000000000, 0.000000000000000000, 0.000000000000000000 ) ) ;
#224 = PLANE ( 'NONE',  #169 ) ;
#225 = DIRECTION ( 'NONE',  ( 0.000000000000000000, 0.000000000000000000, 1.000000000000000000 ) ) ;
#226 = DIRECTION ( 'NONE',  ( -1.000000000000000000, 0.000000000000000000, 0.000000000000000000 ) ) ;
#227 = DIRECTION ( 'NONE',  ( 1.000000000000000000, 0.000000000000000000, 0.000000000000000000 ) ) ;
#228 = ADVANCED_FACE ( 'NONE', ( #48 ), #32, .F. ) ;
#229 = LOCAL_TIME ( 12, 36, 19.00000000000000000, #130 ) ;
#230 = DIRECTION ( 'NONE',  ( 1.000000000000000000, 0.000000000000000000, 0.000000000000000000 ) ) ;
#231 = APPLICATION_PROTOCOL_DEFINITION ( 'international standard', 'config_control_design', 1994, #198 ) ;
#232 = DIRECTION ( 'NONE',  ( -0.000000000000000000, -0.000000000000000000, -1.000000000000000000 ) ) ;
#233 = CC_DESIGN_PERSON_AND_ORGANIZATION_ASSIGNMENT ( #34, #57, ( #64 ) ) ;
#234 = ORIENTED_EDGE ( 'NONE', *, *, #68, .T. ) ;
#235 = ORIENTED_EDGE ( 'NONE', *, *, #157, .T. ) ;
#236 = VERTEX_POINT ( 'NONE', #29 ) ;
#237 = PERSON_AND_ORGANIZATION_ROLE ( 'creator' ) ;
#238 = ORIENTED_EDGE ( 'NONE', *, *, #179, .F. ) ;
#239 = EDGE_LOOP ( 'NONE', ( #201, #13, #41, #58 ) ) ;
#240 = ADVANCED_FACE ( 'NONE', ( #211 ), #249, .T. ) ;
#241 = LINE ( 'NONE', #146, #251 ) ;
#242 = DIRECTION ( 'NONE',  ( -0.000000000000000000, -0.000000000000000000, -1.000000000000000000 ) ) ;
#243 = CIRCLE ( 'NONE', #128, 6.500000000000000888 ) ;
#244 = CARTESIAN_POINT ( 'NONE',  ( -6.500000000000000888, 0.000000000000000000, 7.000000000000000000 ) ) ;
#245 = CARTESIAN_POINT ( 'NONE',  ( 0.000000000000000000, 0.000000000000000000, 7.000000000000000000 ) ) ;
#246 = DIRECTION ( 'NONE',  ( 0.000000000000000000, 0.000000000000000000, 1.000000000000000000 ) ) ;
#247 = PRODUCT_DEFINITION_FORMATION_WITH_SPECIFIED_SOURCE ( 'LIBOVOLNÝ', '', #55, .NOT_KNOWN. ) ;
#248 = VECTOR ( 'NONE', #232, 1000.000000000000000 ) ;
#249 = PLANE ( 'NONE',  #39 ) ;
#250 = PERSON_AND_ORGANIZATION ( #220, #109 ) ;
#251 = VECTOR ( 'NONE', #187, 1000.000000000000000 ) ;
#252 = LOCAL_TIME ( 12, 36, 19.00000000000000000, #172 ) ;
#253 = EDGE_LOOP ( 'NONE', ( #136, #59, #104, #77 ) ) ;
#254 = DATE_TIME_ROLE ( 'classification_date' ) ;
#255 = CYLINDRICAL_SURFACE ( 'NONE', #70, 6.500000000000000888 ) ;
ENDSEC;
END-ISO-10303-21;
