ISO-10303-21;
HEADER;
FILE_DESCRIPTION (( 'STEP AP203' ),
    '1' );
FILE_NAME ('4e35.STEP',
    '2022-07-07T17:53:51',
    ( '' ),
    ( '' ),
    'SwSTEP 2.0',
    'SolidWorks 2019',
    '' );
FILE_SCHEMA (( 'CONFIG_CONTROL_DESIGN' ));
ENDSEC;

DATA;
#1 = CARTESIAN_POINT ( 'NONE',  ( 3.500000000000000000, 4.286263797015736595E-16, 3.000000000000000000 ) ) ;
#2 = APPROVAL_STATUS ( 'not_yet_approved' ) ;
#3 = DIRECTION ( 'NONE',  ( 0.000000000000000000, 0.000000000000000000, 1.000000000000000000 ) ) ;
#4 = DATE_AND_TIME ( #128, #220 ) ;
#5 = ORIENTED_EDGE ( 'NONE', *, *, #9, .F. ) ;
#6 = DIRECTION ( 'NONE',  ( -0.000000000000000000, -0.000000000000000000, -1.000000000000000000 ) ) ;
#7 = APPROVAL_ROLE ( '' ) ;
#8 = DIRECTION ( 'NONE',  ( -1.000000000000000000, 0.000000000000000000, 0.000000000000000000 ) ) ;
#9 = EDGE_CURVE ( 'NONE', #248, #34, #86, .T. ) ;
#10 = DIRECTION ( 'NONE',  ( 0.000000000000000000, 0.000000000000000000, 1.000000000000000000 ) ) ;
#11 = CIRCLE ( 'NONE', #157, 1.750000000000000000 ) ;
#12 = AXIS2_PLACEMENT_3D ( 'NONE', #148, #221, #46 ) ;
#13 = PERSON_AND_ORGANIZATION_ROLE ( 'classification_officer' ) ;
#14 = EDGE_LOOP ( 'NONE', ( #98, #54 ) ) ;
#15 = EDGE_CURVE ( 'NONE', #131, #136, #150, .T. ) ;
#16 = CC_DESIGN_APPROVAL ( #68, ( #92 ) ) ;
#17 = CARTESIAN_POINT ( 'NONE',  ( -1.750000000000000000, 0.000000000000000000, 128.0000000000000000 ) ) ;
#18 = ORIENTED_EDGE ( 'NONE', *, *, #222, .T. ) ;
#19 = ADVANCED_FACE ( 'NONE', ( #230, #210 ), #75, .T. ) ;
#20 = EDGE_LOOP ( 'NONE', ( #229, #5 ) ) ;
#21 = COORDINATED_UNIVERSAL_TIME_OFFSET ( 1, 0, .AHEAD. ) ;
#22 = DATE_AND_TIME ( #122, #132 ) ;
#23 = CARTESIAN_POINT ( 'NONE',  ( 0.000000000000000000, 0.000000000000000000, 3.000000000000000000 ) ) ;
#24 = ORGANIZATION ( 'NEURÈENÝ', 'NEURÈENÝ', '' ) ;
#25 = CARTESIAN_POINT ( 'NONE',  ( 3.500000000000000000, 4.286263797015736595E-16, 3.000000000000000000 ) ) ;
#26 = APPROVAL_DATE_TIME ( #22, #224 ) ;
#27 = DIRECTION ( 'NONE',  ( -0.000000000000000000, -0.000000000000000000, -1.000000000000000000 ) ) ;
#28 = CC_DESIGN_PERSON_AND_ORGANIZATION_ASSIGNMENT ( #241, #62, ( #160 ) ) ;
#29 = LINE ( 'NONE', #180, #156 ) ;
#30 = COORDINATED_UNIVERSAL_TIME_OFFSET ( 1, 0, .AHEAD. ) ;
#31 = ADVANCED_FACE ( 'NONE', ( #33 ), #117, .T. ) ;
#32 = EDGE_LOOP ( 'NONE', ( #97, #18, #74, #173 ) ) ;
#33 = FACE_OUTER_BOUND ( 'NONE', #41, .T. ) ;
#34 = VERTEX_POINT ( 'NONE', #251 ) ;
#35 = ORIENTED_EDGE ( 'NONE', *, *, #134, .T. ) ;
#36 = CARTESIAN_POINT ( 'NONE',  ( -1.750000000000000000, 0.000000000000000000, 128.0000000000000000 ) ) ;
#37 = COORDINATED_UNIVERSAL_TIME_OFFSET ( 1, 0, .AHEAD. ) ;
#38 = PRODUCT_RELATED_PRODUCT_CATEGORY ( 'detail', '', ( #124 ) ) ;
#39 = CARTESIAN_POINT ( 'NONE',  ( -1.750000000000000000, 0.000000000000000000, 3.000000000000000000 ) ) ;
#40 =( NAMED_UNIT ( * ) PLANE_ANGLE_UNIT ( ) SI_UNIT ( $, .RADIAN. ) );
#41 = EDGE_LOOP ( 'NONE', ( #206, #195, #35, #52 ) ) ;
#42 = CYLINDRICAL_SURFACE ( 'NONE', #240, 1.750000000000000000 ) ;
#43 = APPLICATION_PROTOCOL_DEFINITION ( 'international standard', 'config_control_design', 1994, #231 ) ;
#44 = DIRECTION ( 'NONE',  ( 0.000000000000000000, 0.000000000000000000, 1.000000000000000000 ) ) ;
#45 = EDGE_CURVE ( 'NONE', #253, #116, #188, .T. ) ;
#46 = DIRECTION ( 'NONE',  ( 1.000000000000000000, 0.000000000000000000, -0.000000000000000000 ) ) ;
#47 = APPROVAL_ROLE ( '' ) ;
#48 = DATE_TIME_ROLE ( 'classification_date' ) ;
#49 = APPROVAL ( #2, 'NEURÈENÝ' ) ;
#50 = EDGE_LOOP ( 'NONE', ( #159, #133 ) ) ;
#51 = ORIENTED_EDGE ( 'NONE', *, *, #222, .F. ) ;
#52 = ORIENTED_EDGE ( 'NONE', *, *, #45, .F. ) ;
#53 = AXIS2_PLACEMENT_3D ( 'NONE', #197, #66, #8 ) ;
#54 = ORIENTED_EDGE ( 'NONE', *, *, #134, .F. ) ;
#55 = CARTESIAN_POINT ( 'NONE',  ( 0.000000000000000000, 0.000000000000000000, 3.000000000000000000 ) ) ;
#56 = EDGE_CURVE ( 'NONE', #34, #248, #182, .T. ) ;
#57 = CIRCLE ( 'NONE', #237, 1.750000000000000000 ) ;
#58 = CARTESIAN_POINT ( 'NONE',  ( 0.000000000000000000, 0.000000000000000000, 128.0000000000000000 ) ) ;
#59 = APPROVAL_ROLE ( '' ) ;
#60 = CARTESIAN_POINT ( 'NONE',  ( 0.000000000000000000, 0.000000000000000000, 3.000000000000000000 ) ) ;
#61 = CLOSED_SHELL ( 'NONE', ( #31, #110, #191, #19, #198, #113, #120 ) ) ;
#62 = PERSON_AND_ORGANIZATION_ROLE ( 'design_supplier' ) ;
#63 = EDGE_CURVE ( 'NONE', #116, #187, #11, .T. ) ;
#64 = DIRECTION ( 'NONE',  ( 1.000000000000000000, 0.000000000000000000, 0.000000000000000000 ) ) ;
#65 = AXIS2_PLACEMENT_3D ( 'NONE', #254, #125, #215 ) ;
#66 = DIRECTION ( 'NONE',  ( -0.000000000000000000, -0.000000000000000000, -1.000000000000000000 ) ) ;
#67 = PRODUCT_DEFINITION_SHAPE ( 'NONE', 'NONE',  #176 ) ;
#68 = APPROVAL ( #151, 'NEURÈENÝ' ) ;
#69 = CC_DESIGN_PERSON_AND_ORGANIZATION_ASSIGNMENT ( #82, #165, ( #160 ) ) ;
#70 = AXIS2_PLACEMENT_3D ( 'NONE', #83, #164, #64 ) ;
#71 = ORIENTED_EDGE ( 'NONE', *, *, #63, .T. ) ;
#72 = AXIS2_PLACEMENT_3D ( 'NONE', #58, #201, #141 ) ;
#73 = DIRECTION ( 'NONE',  ( -1.000000000000000000, 0.000000000000000000, 0.000000000000000000 ) ) ;
#74 = ORIENTED_EDGE ( 'NONE', *, *, #9, .T. ) ;
#75 = PLANE ( 'NONE',  #255 ) ;
#76 = AXIS2_PLACEMENT_3D ( 'NONE', #190, #232, #158 ) ;
#77 = DESIGN_CONTEXT ( 'detailed design', #203, 'design' ) ;
#78 = EDGE_CURVE ( 'NONE', #131, #34, #29, .T. ) ;
#79 = PERSON_AND_ORGANIZATION ( #91, #24 ) ;
#80 = FACE_OUTER_BOUND ( 'NONE', #20, .T. ) ;
#81 = APPROVAL_PERSON_ORGANIZATION ( #93, #68, #47 ) ;
#82 = PERSON_AND_ORGANIZATION ( #91, #24 ) ;
#83 = CARTESIAN_POINT ( 'NONE',  ( 0.000000000000000000, 0.000000000000000000, 3.000000000000000000 ) ) ;
#84 = APPROVAL_STATUS ( 'not_yet_approved' ) ;
#85 = CARTESIAN_POINT ( 'NONE',  ( 0.000000000000000000, 0.000000000000000000, 128.0000000000000000 ) ) ;
#86 = CIRCLE ( 'NONE', #186, 3.500000000000000000 ) ;
#87 = DIRECTION ( 'NONE',  ( -0.000000000000000000, -0.000000000000000000, -1.000000000000000000 ) ) ;
#88 = VECTOR ( 'NONE', #87, 1000.000000000000000 ) ;
#89 = CARTESIAN_POINT ( 'NONE',  ( 0.000000000000000000, 0.000000000000000000, 3.000000000000000000 ) ) ;
#90 = CC_DESIGN_PERSON_AND_ORGANIZATION_ASSIGNMENT ( #79, #211, ( #124 ) ) ;
#91 = PERSON ( 'NEURÈENÝ', 'NEURÈENÝ', 'NEURÈENÝ', ('NEURÈENÝ'), ('NEURÈENÝ'), ('NEURÈENÝ') ) ;
#92 = SECURITY_CLASSIFICATION ( '', '', #145 ) ;
#93 = PERSON_AND_ORGANIZATION ( #91, #24 ) ;
#94 = EDGE_LOOP ( 'NONE', ( #209, #153, #118, #71 ) ) ;
#95 = LOCAL_TIME ( 19, 53, 51.00000000000000000, #202 ) ;
#96 = DIRECTION ( 'NONE',  ( -0.000000000000000000, -0.000000000000000000, -1.000000000000000000 ) ) ;
#97 = ORIENTED_EDGE ( 'NONE', *, *, #218, .F. ) ;
#98 = ORIENTED_EDGE ( 'NONE', *, *, #63, .F. ) ;
#99 = CIRCLE ( 'NONE', #65, 1.750000000000000000 ) ;
#100 = APPROVAL_DATE_TIME ( #140, #49 ) ;
#101 = COORDINATED_UNIVERSAL_TIME_OFFSET ( 1, 0, .AHEAD. ) ;
#102 = ORIENTED_EDGE ( 'NONE', *, *, #15, .F. ) ;
#103 = CARTESIAN_POINT ( 'NONE',  ( 1.750000000000000000, 2.143131898507868297E-16, 128.0000000000000000 ) ) ;
#104 = AXIS2_PLACEMENT_3D ( 'NONE', #60, #44, #216 ) ;
#105 = MECHANICAL_CONTEXT ( 'NONE', #231, 'mechanical' ) ;
#106 = DIRECTION ( 'NONE',  ( 0.000000000000000000, 0.000000000000000000, 1.000000000000000000 ) ) ;
#107 = CYLINDRICAL_SURFACE ( 'NONE', #214, 3.500000000000000000 ) ;
#108 = CIRCLE ( 'NONE', #104, 1.750000000000000000 ) ;
#109 = DIRECTION ( 'NONE',  ( -0.000000000000000000, -0.000000000000000000, -1.000000000000000000 ) ) ;
#110 = ADVANCED_FACE ( 'NONE', ( #123 ), #107, .T. ) ;
#111 =( GEOMETRIC_REPRESENTATION_CONTEXT ( 3 ) GLOBAL_UNCERTAINTY_ASSIGNED_CONTEXT ( ( #238 ) ) GLOBAL_UNIT_ASSIGNED_CONTEXT ( ( #217, #40, #175 ) ) REPRESENTATION_CONTEXT ( 'NONE', 'WORKASPACE' ) );
#112 = VECTOR ( 'NONE', #200, 1000.000000000000000 ) ;
#113 = ADVANCED_FACE ( 'NONE', ( #196 ), #42, .T. ) ;
#114 = CC_DESIGN_APPROVAL ( #224, ( #160 ) ) ;
#115 = APPROVAL_DATE_TIME ( #185, #68 ) ;
#116 = VERTEX_POINT ( 'NONE', #39 ) ;
#117 = CYLINDRICAL_SURFACE ( 'NONE', #207, 1.750000000000000000 ) ;
#118 = ORIENTED_EDGE ( 'NONE', *, *, #45, .T. ) ;
#119 = ORIENTED_EDGE ( 'NONE', *, *, #56, .T. ) ;
#120 = ADVANCED_FACE ( 'NONE', ( #163 ), #236, .T. ) ;
#121 = PERSON_AND_ORGANIZATION_ROLE ( 'creator' ) ;
#122 = CALENDAR_DATE ( 2022, 7, 7 ) ;
#123 = FACE_OUTER_BOUND ( 'NONE', #32, .T. ) ;
#124 = PRODUCT ( '4e35', '4e35', '', ( #105 ) ) ;
#125 = DIRECTION ( 'NONE',  ( 0.000000000000000000, 0.000000000000000000, 1.000000000000000000 ) ) ;
#126 = LINE ( 'NONE', #103, #88 ) ;
#127 = APPROVAL_PERSON_ORGANIZATION ( #212, #224, #59 ) ;
#128 = CALENDAR_DATE ( 2022, 7, 7 ) ;
#129 = FACE_OUTER_BOUND ( 'NONE', #192, .T. ) ;
#130 = LINE ( 'NONE', #25, #147 ) ;
#131 = VERTEX_POINT ( 'NONE', #168 ) ;
#132 = LOCAL_TIME ( 19, 53, 51.00000000000000000, #37 ) ;
#133 = ORIENTED_EDGE ( 'NONE', *, *, #252, .T. ) ;
#134 = EDGE_CURVE ( 'NONE', #187, #116, #108, .T. ) ;
#135 = DIRECTION ( 'NONE',  ( 0.000000000000000000, 0.000000000000000000, 1.000000000000000000 ) ) ;
#136 = VERTEX_POINT ( 'NONE', #1 ) ;
#137 = ORIENTED_EDGE ( 'NONE', *, *, #218, .T. ) ;
#138 = ORIENTED_EDGE ( 'NONE', *, *, #78, .T. ) ;
#139 = AXIS2_PLACEMENT_3D ( 'NONE', #177, #194, #234 ) ;
#140 = DATE_AND_TIME ( #142, #204 ) ;
#141 = DIRECTION ( 'NONE',  ( 1.000000000000000000, 0.000000000000000000, -0.000000000000000000 ) ) ;
#142 = CALENDAR_DATE ( 2022, 7, 7 ) ;
#143 = CC_DESIGN_DATE_AND_TIME_ASSIGNMENT ( #4, #181, ( #176 ) ) ;
#144 = CARTESIAN_POINT ( 'NONE',  ( 0.000000000000000000, 0.000000000000000000, 0.000000000000000000 ) ) ;
#145 = SECURITY_CLASSIFICATION_LEVEL ( 'unclassified' ) ;
#146 = DIRECTION ( 'NONE',  ( 1.000000000000000000, 0.000000000000000000, 0.000000000000000000 ) ) ;
#147 = VECTOR ( 'NONE', #109, 1000.000000000000000 ) ;
#148 = CARTESIAN_POINT ( 'NONE',  ( 0.000000000000000000, 0.000000000000000000, 0.000000000000000000 ) ) ;
#149 = ADVANCED_BREP_SHAPE_REPRESENTATION ( '4e35', ( #152, #139 ), #111 ) ;
#150 = CIRCLE ( 'NONE', #76, 3.500000000000000000 ) ;
#151 = APPROVAL_STATUS ( 'not_yet_approved' ) ;
#152 = MANIFOLD_SOLID_BREP ( 'Pøidat vysunutím3', #61 ) ;
#153 = ORIENTED_EDGE ( 'NONE', *, *, #246, .F. ) ;
#154 = CC_DESIGN_DATE_AND_TIME_ASSIGNMENT ( #225, #48, ( #92 ) ) ;
#155 = DIRECTION ( 'NONE',  ( 1.000000000000000000, 0.000000000000000000, -0.000000000000000000 ) ) ;
#156 = VECTOR ( 'NONE', #27, 1000.000000000000000 ) ;
#157 = AXIS2_PLACEMENT_3D ( 'NONE', #23, #3, #213 ) ;
#158 = DIRECTION ( 'NONE',  ( 1.000000000000000000, 0.000000000000000000, 0.000000000000000000 ) ) ;
#159 = ORIENTED_EDGE ( 'NONE', *, *, #246, .T. ) ;
#160 = PRODUCT_DEFINITION_FORMATION_WITH_SPECIFIED_SOURCE ( 'LIBOVOLNÝ', '', #124, .NOT_KNOWN. ) ;
#161 = VERTEX_POINT ( 'NONE', #245 ) ;
#162 = APPLICATION_PROTOCOL_DEFINITION ( 'international standard', 'config_control_design', 1994, #203 ) ;
#163 = FACE_OUTER_BOUND ( 'NONE', #50, .T. ) ;
#164 = DIRECTION ( 'NONE',  ( 0.000000000000000000, 0.000000000000000000, 1.000000000000000000 ) ) ;
#165 = PERSON_AND_ORGANIZATION_ROLE ( 'creator' ) ;
#166 = DIRECTION ( 'NONE',  ( 1.000000000000000000, 0.000000000000000000, 0.000000000000000000 ) ) ;
#167 = DIRECTION ( 'NONE',  ( -0.000000000000000000, -0.000000000000000000, -1.000000000000000000 ) ) ;
#168 = CARTESIAN_POINT ( 'NONE',  ( -3.500000000000000000, 0.000000000000000000, 3.000000000000000000 ) ) ;
#169 = LOCAL_TIME ( 19, 53, 51.00000000000000000, #30 ) ;
#170 = CARTESIAN_POINT ( 'NONE',  ( 0.000000000000000000, 0.000000000000000000, 128.0000000000000000 ) ) ;
#171 = CARTESIAN_POINT ( 'NONE',  ( 0.000000000000000000, 0.000000000000000000, 0.000000000000000000 ) ) ;
#172 = EDGE_CURVE ( 'NONE', #161, #187, #126, .T. ) ;
#173 = ORIENTED_EDGE ( 'NONE', *, *, #78, .F. ) ;
#174 = CC_DESIGN_SECURITY_CLASSIFICATION ( #92, ( #160 ) ) ;
#175 =( NAMED_UNIT ( * ) SI_UNIT ( $, .STERADIAN. ) SOLID_ANGLE_UNIT ( ) );
#176 = PRODUCT_DEFINITION ( 'NEZNÁMÝ', '', #160, #77 ) ;
#177 = CARTESIAN_POINT ( 'NONE',  ( 0.000000000000000000, 0.000000000000000000, 0.000000000000000000 ) ) ;
#178 = CARTESIAN_POINT ( 'NONE',  ( 1.750000000000000000, 2.143131898507868297E-16, 3.000000000000000000 ) ) ;
#179 = PERSON_AND_ORGANIZATION ( #91, #24 ) ;
#180 = CARTESIAN_POINT ( 'NONE',  ( -3.500000000000000000, 0.000000000000000000, 3.000000000000000000 ) ) ;
#181 = DATE_TIME_ROLE ( 'creation_date' ) ;
#182 = CIRCLE ( 'NONE', #250, 3.500000000000000000 ) ;
#183 = DIRECTION ( 'NONE',  ( -1.000000000000000000, 0.000000000000000000, 0.000000000000000000 ) ) ;
#184 = PLANE ( 'NONE',  #12 ) ;
#185 = DATE_AND_TIME ( #226, #95 ) ;
#186 = AXIS2_PLACEMENT_3D ( 'NONE', #171, #135, #208 ) ;
#187 = VERTEX_POINT ( 'NONE', #178 ) ;
#188 = LINE ( 'NONE', #17, #112 ) ;
#189 = CC_DESIGN_APPROVAL ( #49, ( #176 ) ) ;
#190 = CARTESIAN_POINT ( 'NONE',  ( 0.000000000000000000, 0.000000000000000000, 3.000000000000000000 ) ) ;
#191 = ADVANCED_FACE ( 'NONE', ( #129 ), #244, .T. ) ;
#192 = EDGE_LOOP ( 'NONE', ( #51, #102, #138, #119 ) ) ;
#193 = CC_DESIGN_PERSON_AND_ORGANIZATION_ASSIGNMENT ( #179, #121, ( #176 ) ) ;
#194 = DIRECTION ( 'NONE',  ( 0.000000000000000000, 0.000000000000000000, 1.000000000000000000 ) ) ;
#195 = ORIENTED_EDGE ( 'NONE', *, *, #172, .T. ) ;
#196 = FACE_OUTER_BOUND ( 'NONE', #94, .T. ) ;
#197 = CARTESIAN_POINT ( 'NONE',  ( 0.000000000000000000, 0.000000000000000000, 3.000000000000000000 ) ) ;
#198 = ADVANCED_FACE ( 'NONE', ( #80 ), #184, .F. ) ;
#199 = PERSON_AND_ORGANIZATION ( #91, #24 ) ;
#200 = DIRECTION ( 'NONE',  ( -0.000000000000000000, -0.000000000000000000, -1.000000000000000000 ) ) ;
#201 = DIRECTION ( 'NONE',  ( 0.000000000000000000, 0.000000000000000000, 1.000000000000000000 ) ) ;
#202 = COORDINATED_UNIVERSAL_TIME_OFFSET ( 1, 0, .AHEAD. ) ;
#203 = APPLICATION_CONTEXT ( 'configuration controlled 3d designs of mechanical parts and assemblies' ) ;
#204 = LOCAL_TIME ( 19, 53, 51.00000000000000000, #101 ) ;
#205 = PERSON_AND_ORGANIZATION ( #91, #24 ) ;
#206 = ORIENTED_EDGE ( 'NONE', *, *, #252, .F. ) ;
#207 = AXIS2_PLACEMENT_3D ( 'NONE', #170, #96, #73 ) ;
#208 = DIRECTION ( 'NONE',  ( 1.000000000000000000, 0.000000000000000000, 0.000000000000000000 ) ) ;
#209 = ORIENTED_EDGE ( 'NONE', *, *, #172, .F. ) ;
#210 = FACE_OUTER_BOUND ( 'NONE', #249, .T. ) ;
#211 = PERSON_AND_ORGANIZATION_ROLE ( 'design_owner' ) ;
#212 = PERSON_AND_ORGANIZATION ( #91, #24 ) ;
#213 = DIRECTION ( 'NONE',  ( 1.000000000000000000, 0.000000000000000000, 0.000000000000000000 ) ) ;
#214 = AXIS2_PLACEMENT_3D ( 'NONE', #89, #6, #219 ) ;
#215 = DIRECTION ( 'NONE',  ( 1.000000000000000000, 0.000000000000000000, 0.000000000000000000 ) ) ;
#216 = DIRECTION ( 'NONE',  ( 1.000000000000000000, 0.000000000000000000, 0.000000000000000000 ) ) ;
#217 =( LENGTH_UNIT ( ) NAMED_UNIT ( * ) SI_UNIT ( .MILLI., .METRE. ) );
#218 = EDGE_CURVE ( 'NONE', #136, #131, #235, .T. ) ;
#219 = DIRECTION ( 'NONE',  ( -1.000000000000000000, 0.000000000000000000, 0.000000000000000000 ) ) ;
#220 = LOCAL_TIME ( 19, 53, 51.00000000000000000, #21 ) ;
#221 = DIRECTION ( 'NONE',  ( 0.000000000000000000, 0.000000000000000000, 1.000000000000000000 ) ) ;
#222 = EDGE_CURVE ( 'NONE', #136, #248, #130, .T. ) ;
#223 = SHAPE_DEFINITION_REPRESENTATION ( #67, #149 ) ;
#224 = APPROVAL ( #84, 'NEURÈENÝ' ) ;
#225 = DATE_AND_TIME ( #247, #169 ) ;
#226 = CALENDAR_DATE ( 2022, 7, 7 ) ;
#227 = APPROVAL_PERSON_ORGANIZATION ( #199, #49, #7 ) ;
#228 = ORIENTED_EDGE ( 'NONE', *, *, #15, .T. ) ;
#229 = ORIENTED_EDGE ( 'NONE', *, *, #56, .F. ) ;
#230 = FACE_BOUND ( 'NONE', #14, .T. ) ;
#231 = APPLICATION_CONTEXT ( 'configuration controlled 3d designs of mechanical parts and assemblies' ) ;
#232 = DIRECTION ( 'NONE',  ( 0.000000000000000000, 0.000000000000000000, 1.000000000000000000 ) ) ;
#233 = DIRECTION ( 'NONE',  ( 0.000000000000000000, 0.000000000000000000, 1.000000000000000000 ) ) ;
#234 = DIRECTION ( 'NONE',  ( 1.000000000000000000, 0.000000000000000000, 0.000000000000000000 ) ) ;
#235 = CIRCLE ( 'NONE', #70, 3.500000000000000000 ) ;
#236 = PLANE ( 'NONE',  #72 ) ;
#237 = AXIS2_PLACEMENT_3D ( 'NONE', #239, #106, #166 ) ;
#238 = UNCERTAINTY_MEASURE_WITH_UNIT (LENGTH_MEASURE( 1.000000000000000082E-05 ), #217, 'distance_accuracy_value', 'NONE');
#239 = CARTESIAN_POINT ( 'NONE',  ( 0.000000000000000000, 0.000000000000000000, 128.0000000000000000 ) ) ;
#240 = AXIS2_PLACEMENT_3D ( 'NONE', #85, #167, #183 ) ;
#241 = PERSON_AND_ORGANIZATION ( #91, #24 ) ;
#242 = CC_DESIGN_PERSON_AND_ORGANIZATION_ASSIGNMENT ( #205, #13, ( #92 ) ) ;
#243 = CARTESIAN_POINT ( 'NONE',  ( 3.500000000000000000, 4.286263797015736595E-16, 0.000000000000000000 ) ) ;
#244 = CYLINDRICAL_SURFACE ( 'NONE', #53, 3.500000000000000000 ) ;
#245 = CARTESIAN_POINT ( 'NONE',  ( 1.750000000000000000, 2.143131898507868297E-16, 128.0000000000000000 ) ) ;
#246 = EDGE_CURVE ( 'NONE', #253, #161, #57, .T. ) ;
#247 = CALENDAR_DATE ( 2022, 7, 7 ) ;
#248 = VERTEX_POINT ( 'NONE', #243 ) ;
#249 = EDGE_LOOP ( 'NONE', ( #228, #137 ) ) ;
#250 = AXIS2_PLACEMENT_3D ( 'NONE', #144, #10, #146 ) ;
#251 = CARTESIAN_POINT ( 'NONE',  ( -3.500000000000000000, 0.000000000000000000, 0.000000000000000000 ) ) ;
#252 = EDGE_CURVE ( 'NONE', #161, #253, #99, .T. ) ;
#253 = VERTEX_POINT ( 'NONE', #36 ) ;
#254 = CARTESIAN_POINT ( 'NONE',  ( 0.000000000000000000, 0.000000000000000000, 128.0000000000000000 ) ) ;
#255 = AXIS2_PLACEMENT_3D ( 'NONE', #55, #233, #155 ) ;
ENDSEC;
END-ISO-10303-21;
