ISO-10303-21;
HEADER;
FILE_DESCRIPTION (( 'STEP AP203' ),
    '1' );
FILE_NAME ('71e3.STEP',
    '2022-07-07T17:21:55',
    ( '' ),
    ( '' ),
    'SwSTEP 2.0',
    'SolidWorks 2019',
    '' );
FILE_SCHEMA (( 'CONFIG_CONTROL_DESIGN' ));
ENDSEC;

DATA;
#1 = PERSON_AND_ORGANIZATION ( #93, #140 ) ;
#2 = VERTEX_POINT ( 'NONE', #200 ) ;
#3 = DIRECTION ( 'NONE',  ( -1.000000000000000000, 0.000000000000000000, 0.000000000000000000 ) ) ;
#4 = AXIS2_PLACEMENT_3D ( 'NONE', #192, #124, #222 ) ;
#5 = DIRECTION ( 'NONE',  ( 1.000000000000000000, 0.000000000000000000, 0.000000000000000000 ) ) ;
#6 = CARTESIAN_POINT ( 'NONE',  ( 0.000000000000000000, 0.000000000000000000, 505.0000000000000000 ) ) ;
#7 = APPROVAL_PERSON_ORGANIZATION ( #254, #215, #183 ) ;
#8 = EDGE_LOOP ( 'NONE', ( #120, #174, #202, #241 ) ) ;
#9 = APPROVAL_STATUS ( 'not_yet_approved' ) ;
#10 = LINE ( 'NONE', #142, #189 ) ;
#11 = EDGE_CURVE ( 'NONE', #243, #44, #132, .T. ) ;
#12 = ORIENTED_EDGE ( 'NONE', *, *, #108, .F. ) ;
#13 = APPROVAL_ROLE ( '' ) ;
#14 = CARTESIAN_POINT ( 'NONE',  ( 0.000000000000000000, 0.000000000000000000, 5.000000000000000000 ) ) ;
#15 = AXIS2_PLACEMENT_3D ( 'NONE', #67, #49, #210 ) ;
#16 = EDGE_CURVE ( 'NONE', #98, #2, #163, .T. ) ;
#17 = PRODUCT ( '71e3', '71e3', '', ( #75 ) ) ;
#18 = CC_DESIGN_PERSON_AND_ORGANIZATION_ASSIGNMENT ( #24, #253, ( #17 ) ) ;
#19 = AXIS2_PLACEMENT_3D ( 'NONE', #14, #88, #239 ) ;
#20 = APPROVAL_DATE_TIME ( #199, #74 ) ;
#21 = EDGE_CURVE ( 'NONE', #236, #194, #107, .T. ) ;
#22 = APPROVAL_STATUS ( 'not_yet_approved' ) ;
#23 = APPLICATION_PROTOCOL_DEFINITION ( 'international standard', 'config_control_design', 1994, #229 ) ;
#24 = PERSON_AND_ORGANIZATION ( #93, #140 ) ;
#25 = EDGE_LOOP ( 'NONE', ( #186, #188 ) ) ;
#26 = CARTESIAN_POINT ( 'NONE',  ( 5.500000000000000000, 6.735557395310442023E-16, 5.000000000000000000 ) ) ;
#27 = ORIENTED_EDGE ( 'NONE', *, *, #145, .F. ) ;
#28 = PLANE ( 'NONE',  #179 ) ;
#29 = FACE_OUTER_BOUND ( 'NONE', #68, .T. ) ;
#30 = CARTESIAN_POINT ( 'NONE',  ( 8.000000000000000000, 9.797174393178825657E-16, 0.000000000000000000 ) ) ;
#31 = EDGE_LOOP ( 'NONE', ( #147, #208 ) ) ;
#32 = CYLINDRICAL_SURFACE ( 'NONE', #19, 8.000000000000000000 ) ;
#33 = CALENDAR_DATE ( 2022, 7, 7 ) ;
#34 = DIRECTION ( 'NONE',  ( -0.000000000000000000, -0.000000000000000000, -1.000000000000000000 ) ) ;
#35 = CC_DESIGN_PERSON_AND_ORGANIZATION_ASSIGNMENT ( #244, #195, ( #37 ) ) ;
#36 = EDGE_CURVE ( 'NONE', #2, #98, #116, .T. ) ;
#37 = PRODUCT_DEFINITION_FORMATION_WITH_SPECIFIED_SOURCE ( 'LIBOVOLNÝ', '', #17, .NOT_KNOWN. ) ;
#38 = ADVANCED_FACE ( 'NONE', ( #29 ), #101, .T. ) ;
#39 = LOCAL_TIME ( 19, 21, 55.00000000000000000, #72 ) ;
#40 = DIRECTION ( 'NONE',  ( 0.000000000000000000, 0.000000000000000000, 1.000000000000000000 ) ) ;
#41 = ORIENTED_EDGE ( 'NONE', *, *, #21, .T. ) ;
#42 = LOCAL_TIME ( 19, 21, 55.00000000000000000, #234 ) ;
#43 = DIRECTION ( 'NONE',  ( 0.000000000000000000, 0.000000000000000000, 1.000000000000000000 ) ) ;
#44 = VERTEX_POINT ( 'NONE', #65 ) ;
#45 = CARTESIAN_POINT ( 'NONE',  ( 0.000000000000000000, 0.000000000000000000, 5.000000000000000000 ) ) ;
#46 = EDGE_CURVE ( 'NONE', #194, #168, #172, .T. ) ;
#47 = DIRECTION ( 'NONE',  ( 0.000000000000000000, 0.000000000000000000, 1.000000000000000000 ) ) ;
#48 = FACE_BOUND ( 'NONE', #86, .T. ) ;
#49 = DIRECTION ( 'NONE',  ( -0.000000000000000000, -0.000000000000000000, -1.000000000000000000 ) ) ;
#50 = CC_DESIGN_PERSON_AND_ORGANIZATION_ASSIGNMENT ( #1, #135, ( #137 ) ) ;
#51 = DIRECTION ( 'NONE',  ( 1.000000000000000000, 0.000000000000000000, 0.000000000000000000 ) ) ;
#52 = LOCAL_TIME ( 19, 21, 55.00000000000000000, #58 ) ;
#53 = ADVANCED_FACE ( 'NONE', ( #196 ), #28, .F. ) ;
#54 = AXIS2_PLACEMENT_3D ( 'NONE', #126, #103, #5 ) ;
#55 = EDGE_CURVE ( 'NONE', #243, #98, #10, .T. ) ;
#56 = AXIS2_PLACEMENT_3D ( 'NONE', #211, #97, #193 ) ;
#57 = CALENDAR_DATE ( 2022, 7, 7 ) ;
#58 = COORDINATED_UNIVERSAL_TIME_OFFSET ( 1, 0, .AHEAD. ) ;
#59 = DATE_AND_TIME ( #115, #185 ) ;
#60 = ORIENTED_EDGE ( 'NONE', *, *, #145, .T. ) ;
#61 = ORIENTED_EDGE ( 'NONE', *, *, #209, .T. ) ;
#62 =( GEOMETRIC_REPRESENTATION_CONTEXT ( 3 ) GLOBAL_UNCERTAINTY_ASSIGNED_CONTEXT ( ( #100 ) ) GLOBAL_UNIT_ASSIGNED_CONTEXT ( ( #76, #118, #133 ) ) REPRESENTATION_CONTEXT ( 'NONE', 'WORKASPACE' ) );
#63 = CYLINDRICAL_SURFACE ( 'NONE', #114, 5.500000000000000000 ) ;
#64 = ORIENTED_EDGE ( 'NONE', *, *, #219, .F. ) ;
#65 = CARTESIAN_POINT ( 'NONE',  ( -8.000000000000000000, 0.000000000000000000, 5.000000000000000000 ) ) ;
#66 = ORIENTED_EDGE ( 'NONE', *, *, #55, .F. ) ;
#67 = CARTESIAN_POINT ( 'NONE',  ( 0.000000000000000000, 0.000000000000000000, 505.0000000000000000 ) ) ;
#68 = EDGE_LOOP ( 'NONE', ( #66, #12, #247, #139 ) ) ;
#69 = CARTESIAN_POINT ( 'NONE',  ( 0.000000000000000000, 0.000000000000000000, 5.000000000000000000 ) ) ;
#70 = SECURITY_CLASSIFICATION ( '', '', #71 ) ;
#71 = SECURITY_CLASSIFICATION_LEVEL ( 'unclassified' ) ;
#72 = COORDINATED_UNIVERSAL_TIME_OFFSET ( 1, 0, .AHEAD. ) ;
#73 = AXIS2_PLACEMENT_3D ( 'NONE', #79, #144, #203 ) ;
#74 = APPROVAL ( #233, 'NEURÈENÝ' ) ;
#75 = MECHANICAL_CONTEXT ( 'NONE', #229, 'mechanical' ) ;
#76 =( LENGTH_UNIT ( ) NAMED_UNIT ( * ) SI_UNIT ( .MILLI., .METRE. ) );
#77 = CALENDAR_DATE ( 2022, 7, 7 ) ;
#78 = EDGE_LOOP ( 'NONE', ( #64, #153, #60, #167 ) ) ;
#79 = CARTESIAN_POINT ( 'NONE',  ( 0.000000000000000000, 0.000000000000000000, 5.000000000000000000 ) ) ;
#80 = CARTESIAN_POINT ( 'NONE',  ( 0.000000000000000000, 0.000000000000000000, 0.000000000000000000 ) ) ;
#81 = DIRECTION ( 'NONE',  ( -0.000000000000000000, -0.000000000000000000, -1.000000000000000000 ) ) ;
#82 = DIRECTION ( 'NONE',  ( 1.000000000000000000, 0.000000000000000000, 0.000000000000000000 ) ) ;
#83 = DATE_AND_TIME ( #158, #39 ) ;
#84 = CARTESIAN_POINT ( 'NONE',  ( -5.500000000000000000, 0.000000000000000000, 505.0000000000000000 ) ) ;
#85 = CC_DESIGN_PERSON_AND_ORGANIZATION_ASSIGNMENT ( #206, #104, ( #70 ) ) ;
#86 = EDGE_LOOP ( 'NONE', ( #122, #27 ) ) ;
#87 = SHAPE_DEFINITION_REPRESENTATION ( #231, #146 ) ;
#88 = DIRECTION ( 'NONE',  ( -0.000000000000000000, -0.000000000000000000, -1.000000000000000000 ) ) ;
#89 = AXIS2_PLACEMENT_3D ( 'NONE', #45, #221, #228 ) ;
#90 = DIRECTION ( 'NONE',  ( 1.000000000000000000, 0.000000000000000000, -0.000000000000000000 ) ) ;
#91 = CIRCLE ( 'NONE', #165, 5.500000000000000000 ) ;
#92 = PLANE ( 'NONE',  #252 ) ;
#93 = PERSON ( 'NEURÈENÝ', 'NEURÈENÝ', 'NEURÈENÝ', ('NEURÈENÝ'), ('NEURÈENÝ'), ('NEURÈENÝ') ) ;
#94 = LOCAL_TIME ( 19, 21, 55.00000000000000000, #227 ) ;
#95 = EDGE_CURVE ( 'NONE', #236, #141, #242, .T. ) ;
#96 = ORIENTED_EDGE ( 'NONE', *, *, #21, .F. ) ;
#97 = DIRECTION ( 'NONE',  ( -0.000000000000000000, -0.000000000000000000, -1.000000000000000000 ) ) ;
#98 = VERTEX_POINT ( 'NONE', #30 ) ;
#99 = FACE_OUTER_BOUND ( 'NONE', #25, .T. ) ;
#100 = UNCERTAINTY_MEASURE_WITH_UNIT (LENGTH_MEASURE( 1.000000000000000082E-05 ), #76, 'distance_accuracy_value', 'NONE');
#101 = CYLINDRICAL_SURFACE ( 'NONE', #56, 8.000000000000000000 ) ;
#102 = FACE_OUTER_BOUND ( 'NONE', #78, .T. ) ;
#103 = DIRECTION ( 'NONE',  ( 0.000000000000000000, 0.000000000000000000, 1.000000000000000000 ) ) ;
#104 = PERSON_AND_ORGANIZATION_ROLE ( 'classification_officer' ) ;
#105 = CARTESIAN_POINT ( 'NONE',  ( 5.500000000000000000, 6.735557395310442023E-16, 505.0000000000000000 ) ) ;
#106 = DATE_AND_TIME ( #33, #94 ) ;
#107 = CIRCLE ( 'NONE', #4, 5.500000000000000000 ) ;
#108 = EDGE_CURVE ( 'NONE', #44, #243, #205, .T. ) ;
#109 = CLOSED_SHELL ( 'NONE', ( #156, #178, #38, #131, #53, #134, #246 ) ) ;
#110 = APPROVAL_PERSON_ORGANIZATION ( #111, #74, #184 ) ;
#111 = PERSON_AND_ORGANIZATION ( #93, #140 ) ;
#112 = CARTESIAN_POINT ( 'NONE',  ( 8.000000000000000000, 9.797174393178825657E-16, 5.000000000000000000 ) ) ;
#113 = MANIFOLD_SOLID_BREP ( 'Pøidat vysunutím3', #109 ) ;
#114 = AXIS2_PLACEMENT_3D ( 'NONE', #6, #81, #3 ) ;
#115 = CALENDAR_DATE ( 2022, 7, 7 ) ;
#116 = CIRCLE ( 'NONE', #226, 8.000000000000000000 ) ;
#117 = EDGE_CURVE ( 'NONE', #44, #2, #187, .T. ) ;
#118 =( NAMED_UNIT ( * ) PLANE_ANGLE_UNIT ( ) SI_UNIT ( $, .RADIAN. ) );
#119 = AXIS2_PLACEMENT_3D ( 'NONE', #177, #207, #175 ) ;
#120 = ORIENTED_EDGE ( 'NONE', *, *, #11, .F. ) ;
#121 = FACE_OUTER_BOUND ( 'NONE', #8, .T. ) ;
#122 = ORIENTED_EDGE ( 'NONE', *, *, #209, .F. ) ;
#123 = DIRECTION ( 'NONE',  ( -0.000000000000000000, -0.000000000000000000, -1.000000000000000000 ) ) ;
#124 = DIRECTION ( 'NONE',  ( 0.000000000000000000, 0.000000000000000000, 1.000000000000000000 ) ) ;
#125 = CARTESIAN_POINT ( 'NONE',  ( 0.000000000000000000, 0.000000000000000000, 0.000000000000000000 ) ) ;
#126 = CARTESIAN_POINT ( 'NONE',  ( 0.000000000000000000, 0.000000000000000000, 5.000000000000000000 ) ) ;
#127 = CIRCLE ( 'NONE', #119, 5.500000000000000000 ) ;
#128 = DIRECTION ( 'NONE',  ( -0.000000000000000000, -0.000000000000000000, -1.000000000000000000 ) ) ;
#129 = PERSON_AND_ORGANIZATION ( #93, #140 ) ;
#130 = CARTESIAN_POINT ( 'NONE',  ( 0.000000000000000000, 0.000000000000000000, 505.0000000000000000 ) ) ;
#131 = ADVANCED_FACE ( 'NONE', ( #48, #99 ), #190, .T. ) ;
#132 = CIRCLE ( 'NONE', #54, 8.000000000000000000 ) ;
#133 =( NAMED_UNIT ( * ) SI_UNIT ( $, .STERADIAN. ) SOLID_ANGLE_UNIT ( ) );
#134 = ADVANCED_FACE ( 'NONE', ( #201 ), #63, .T. ) ;
#135 = PERSON_AND_ORGANIZATION_ROLE ( 'creator' ) ;
#136 = COORDINATED_UNIVERSAL_TIME_OFFSET ( 1, 0, .AHEAD. ) ;
#137 = PRODUCT_DEFINITION ( 'NEZNÁMÝ', '', #37, #152 ) ;
#138 = APPROVAL_DATE_TIME ( #59, #215 ) ;
#139 = ORIENTED_EDGE ( 'NONE', *, *, #36, .T. ) ;
#140 = ORGANIZATION ( 'NEURÈENÝ', 'NEURÈENÝ', '' ) ;
#141 = VERTEX_POINT ( 'NONE', #169 ) ;
#142 = CARTESIAN_POINT ( 'NONE',  ( 8.000000000000000000, 9.797174393178825657E-16, 5.000000000000000000 ) ) ;
#143 = DIRECTION ( 'NONE',  ( 0.000000000000000000, 0.000000000000000000, 1.000000000000000000 ) ) ;
#144 = DIRECTION ( 'NONE',  ( 0.000000000000000000, 0.000000000000000000, 1.000000000000000000 ) ) ;
#145 = EDGE_CURVE ( 'NONE', #168, #141, #127, .T. ) ;
#146 = ADVANCED_BREP_SHAPE_REPRESENTATION ( '71e3', ( #113, #161 ), #62 ) ;
#147 = ORIENTED_EDGE ( 'NONE', *, *, #36, .F. ) ;
#148 = APPLICATION_CONTEXT ( 'configuration controlled 3d designs of mechanical parts and assemblies' ) ;
#149 = PERSON_AND_ORGANIZATION ( #93, #140 ) ;
#150 = DIRECTION ( 'NONE',  ( 1.000000000000000000, 0.000000000000000000, -0.000000000000000000 ) ) ;
#151 = AXIS2_PLACEMENT_3D ( 'NONE', #80, #143, #82 ) ;
#152 = DESIGN_CONTEXT ( 'detailed design', #148, 'design' ) ;
#153 = ORIENTED_EDGE ( 'NONE', *, *, #46, .T. ) ;
#154 = PERSON_AND_ORGANIZATION_ROLE ( 'creator' ) ;
#155 = DIRECTION ( 'NONE',  ( -0.000000000000000000, -0.000000000000000000, -1.000000000000000000 ) ) ;
#156 = ADVANCED_FACE ( 'NONE', ( #102 ), #245, .T. ) ;
#157 = APPROVAL_DATE_TIME ( #83, #251 ) ;
#158 = CALENDAR_DATE ( 2022, 7, 7 ) ;
#159 = CC_DESIGN_APPROVAL ( #215, ( #37 ) ) ;
#160 = VECTOR ( 'NONE', #128, 1000.000000000000000 ) ;
#161 = AXIS2_PLACEMENT_3D ( 'NONE', #164, #162, #182 ) ;
#162 = DIRECTION ( 'NONE',  ( 0.000000000000000000, 0.000000000000000000, 1.000000000000000000 ) ) ;
#163 = CIRCLE ( 'NONE', #151, 8.000000000000000000 ) ;
#164 = CARTESIAN_POINT ( 'NONE',  ( 0.000000000000000000, 0.000000000000000000, 0.000000000000000000 ) ) ;
#165 = AXIS2_PLACEMENT_3D ( 'NONE', #130, #217, #216 ) ;
#166 = DATE_TIME_ROLE ( 'creation_date' ) ;
#167 = ORIENTED_EDGE ( 'NONE', *, *, #95, .F. ) ;
#168 = VERTEX_POINT ( 'NONE', #26 ) ;
#169 = CARTESIAN_POINT ( 'NONE',  ( -5.500000000000000000, 0.000000000000000000, 5.000000000000000000 ) ) ;
#170 = AXIS2_PLACEMENT_3D ( 'NONE', #69, #230, #51 ) ;
#171 = ORIENTED_EDGE ( 'NONE', *, *, #219, .T. ) ;
#172 = LINE ( 'NONE', #105, #160 ) ;
#173 = CC_DESIGN_PERSON_AND_ORGANIZATION_ASSIGNMENT ( #149, #154, ( #37 ) ) ;
#174 = ORIENTED_EDGE ( 'NONE', *, *, #55, .T. ) ;
#175 = DIRECTION ( 'NONE',  ( 1.000000000000000000, 0.000000000000000000, 0.000000000000000000 ) ) ;
#176 = CARTESIAN_POINT ( 'NONE',  ( 0.000000000000000000, 0.000000000000000000, 0.000000000000000000 ) ) ;
#177 = CARTESIAN_POINT ( 'NONE',  ( 0.000000000000000000, 0.000000000000000000, 5.000000000000000000 ) ) ;
#178 = ADVANCED_FACE ( 'NONE', ( #121 ), #32, .T. ) ;
#179 = AXIS2_PLACEMENT_3D ( 'NONE', #125, #43, #150 ) ;
#180 = PRODUCT_RELATED_PRODUCT_CATEGORY ( 'detail', '', ( #17 ) ) ;
#181 = CARTESIAN_POINT ( 'NONE',  ( -5.500000000000000000, 0.000000000000000000, 505.0000000000000000 ) ) ;
#182 = DIRECTION ( 'NONE',  ( 1.000000000000000000, 0.000000000000000000, 0.000000000000000000 ) ) ;
#183 = APPROVAL_ROLE ( '' ) ;
#184 = APPROVAL_ROLE ( '' ) ;
#185 = LOCAL_TIME ( 19, 21, 55.00000000000000000, #136 ) ;
#186 = ORIENTED_EDGE ( 'NONE', *, *, #108, .T. ) ;
#187 = LINE ( 'NONE', #223, #198 ) ;
#188 = ORIENTED_EDGE ( 'NONE', *, *, #11, .T. ) ;
#189 = VECTOR ( 'NONE', #34, 1000.000000000000000 ) ;
#190 = PLANE ( 'NONE',  #73 ) ;
#191 = CC_DESIGN_SECURITY_CLASSIFICATION ( #70, ( #37 ) ) ;
#192 = CARTESIAN_POINT ( 'NONE',  ( 0.000000000000000000, 0.000000000000000000, 505.0000000000000000 ) ) ;
#193 = DIRECTION ( 'NONE',  ( -1.000000000000000000, 0.000000000000000000, 0.000000000000000000 ) ) ;
#194 = VERTEX_POINT ( 'NONE', #248 ) ;
#195 = PERSON_AND_ORGANIZATION_ROLE ( 'design_supplier' ) ;
#196 = FACE_OUTER_BOUND ( 'NONE', #31, .T. ) ;
#197 = CARTESIAN_POINT ( 'NONE',  ( 0.000000000000000000, 0.000000000000000000, 505.0000000000000000 ) ) ;
#198 = VECTOR ( 'NONE', #123, 1000.000000000000000 ) ;
#199 = DATE_AND_TIME ( #57, #42 ) ;
#200 = CARTESIAN_POINT ( 'NONE',  ( -8.000000000000000000, 0.000000000000000000, 0.000000000000000000 ) ) ;
#201 = FACE_OUTER_BOUND ( 'NONE', #238, .T. ) ;
#202 = ORIENTED_EDGE ( 'NONE', *, *, #16, .T. ) ;
#203 = DIRECTION ( 'NONE',  ( 1.000000000000000000, 0.000000000000000000, -0.000000000000000000 ) ) ;
#204 = DIRECTION ( 'NONE',  ( 1.000000000000000000, 0.000000000000000000, 0.000000000000000000 ) ) ;
#205 = CIRCLE ( 'NONE', #89, 8.000000000000000000 ) ;
#206 = PERSON_AND_ORGANIZATION ( #93, #140 ) ;
#207 = DIRECTION ( 'NONE',  ( 0.000000000000000000, 0.000000000000000000, 1.000000000000000000 ) ) ;
#208 = ORIENTED_EDGE ( 'NONE', *, *, #16, .F. ) ;
#209 = EDGE_CURVE ( 'NONE', #141, #168, #240, .T. ) ;
#210 = DIRECTION ( 'NONE',  ( -1.000000000000000000, 0.000000000000000000, 0.000000000000000000 ) ) ;
#211 = CARTESIAN_POINT ( 'NONE',  ( 0.000000000000000000, 0.000000000000000000, 5.000000000000000000 ) ) ;
#212 = VECTOR ( 'NONE', #155, 1000.000000000000000 ) ;
#213 = APPROVAL_PERSON_ORGANIZATION ( #129, #251, #13 ) ;
#214 = DATE_AND_TIME ( #77, #52 ) ;
#215 = APPROVAL ( #22, 'NEURÈENÝ' ) ;
#216 = DIRECTION ( 'NONE',  ( 1.000000000000000000, 0.000000000000000000, 0.000000000000000000 ) ) ;
#217 = DIRECTION ( 'NONE',  ( 0.000000000000000000, 0.000000000000000000, 1.000000000000000000 ) ) ;
#218 = ORIENTED_EDGE ( 'NONE', *, *, #95, .T. ) ;
#219 = EDGE_CURVE ( 'NONE', #194, #236, #91, .T. ) ;
#220 = EDGE_LOOP ( 'NONE', ( #41, #171 ) ) ;
#221 = DIRECTION ( 'NONE',  ( 0.000000000000000000, 0.000000000000000000, 1.000000000000000000 ) ) ;
#222 = DIRECTION ( 'NONE',  ( 1.000000000000000000, 0.000000000000000000, 0.000000000000000000 ) ) ;
#223 = CARTESIAN_POINT ( 'NONE',  ( -8.000000000000000000, 0.000000000000000000, 5.000000000000000000 ) ) ;
#224 = CC_DESIGN_DATE_AND_TIME_ASSIGNMENT ( #214, #166, ( #137 ) ) ;
#225 = ORIENTED_EDGE ( 'NONE', *, *, #46, .F. ) ;
#226 = AXIS2_PLACEMENT_3D ( 'NONE', #176, #47, #204 ) ;
#227 = COORDINATED_UNIVERSAL_TIME_OFFSET ( 1, 0, .AHEAD. ) ;
#228 = DIRECTION ( 'NONE',  ( 1.000000000000000000, 0.000000000000000000, 0.000000000000000000 ) ) ;
#229 = APPLICATION_CONTEXT ( 'configuration controlled 3d designs of mechanical parts and assemblies' ) ;
#230 = DIRECTION ( 'NONE',  ( 0.000000000000000000, 0.000000000000000000, 1.000000000000000000 ) ) ;
#231 = PRODUCT_DEFINITION_SHAPE ( 'NONE', 'NONE',  #137 ) ;
#232 = APPLICATION_PROTOCOL_DEFINITION ( 'international standard', 'config_control_design', 1994, #148 ) ;
#233 = APPROVAL_STATUS ( 'not_yet_approved' ) ;
#234 = COORDINATED_UNIVERSAL_TIME_OFFSET ( 1, 0, .AHEAD. ) ;
#235 = FACE_OUTER_BOUND ( 'NONE', #220, .T. ) ;
#236 = VERTEX_POINT ( 'NONE', #181 ) ;
#237 = CC_DESIGN_DATE_AND_TIME_ASSIGNMENT ( #106, #250, ( #70 ) ) ;
#238 = EDGE_LOOP ( 'NONE', ( #225, #96, #218, #61 ) ) ;
#239 = DIRECTION ( 'NONE',  ( -1.000000000000000000, 0.000000000000000000, 0.000000000000000000 ) ) ;
#240 = CIRCLE ( 'NONE', #170, 5.500000000000000000 ) ;
#241 = ORIENTED_EDGE ( 'NONE', *, *, #117, .F. ) ;
#242 = LINE ( 'NONE', #84, #212 ) ;
#243 = VERTEX_POINT ( 'NONE', #112 ) ;
#244 = PERSON_AND_ORGANIZATION ( #93, #140 ) ;
#245 = CYLINDRICAL_SURFACE ( 'NONE', #15, 5.500000000000000000 ) ;
#246 = ADVANCED_FACE ( 'NONE', ( #235 ), #92, .T. ) ;
#247 = ORIENTED_EDGE ( 'NONE', *, *, #117, .T. ) ;
#248 = CARTESIAN_POINT ( 'NONE',  ( 5.500000000000000000, 6.735557395310442023E-16, 505.0000000000000000 ) ) ;
#249 = CC_DESIGN_APPROVAL ( #251, ( #70 ) ) ;
#250 = DATE_TIME_ROLE ( 'classification_date' ) ;
#251 = APPROVAL ( #9, 'NEURÈENÝ' ) ;
#252 = AXIS2_PLACEMENT_3D ( 'NONE', #197, #40, #90 ) ;
#253 = PERSON_AND_ORGANIZATION_ROLE ( 'design_owner' ) ;
#254 = PERSON_AND_ORGANIZATION ( #93, #140 ) ;
#255 = CC_DESIGN_APPROVAL ( #74, ( #137 ) ) ;
ENDSEC;
END-ISO-10303-21;
