ISO-10303-21;
HEADER;
FILE_DESCRIPTION (( 'STEP AP203' ),
    '1' );
FILE_NAME ('a9a3.STEP',
    '2022-07-07T17:29:50',
    ( '' ),
    ( '' ),
    'SwSTEP 2.0',
    'SolidWorks 2019',
    '' );
FILE_SCHEMA (( 'CONFIG_CONTROL_DESIGN' ));
ENDSEC;

DATA;
#1 = CIRCLE ( 'NONE', #74, 7.000000000000000000 ) ;
#2 = PERSON_AND_ORGANIZATION ( #202, #78 ) ;
#3 = ORIENTED_EDGE ( 'NONE', *, *, #98, .T. ) ;
#4 = EDGE_CURVE ( 'NONE', #75, #182, #170, .T. ) ;
#5 = APPROVAL_DATE_TIME ( #100, #64 ) ;
#6 = PERSON_AND_ORGANIZATION_ROLE ( 'creator' ) ;
#7 = CARTESIAN_POINT ( 'NONE',  ( 7.000000000000000000, 8.572527594031473190E-16, 5.000000000000000000 ) ) ;
#8 =( GEOMETRIC_REPRESENTATION_CONTEXT ( 3 ) GLOBAL_UNCERTAINTY_ASSIGNED_CONTEXT ( ( #159 ) ) GLOBAL_UNIT_ASSIGNED_CONTEXT ( ( #87, #12, #124 ) ) REPRESENTATION_CONTEXT ( 'NONE', 'WORKASPACE' ) );
#9 = CARTESIAN_POINT ( 'NONE',  ( 0.000000000000000000, 0.000000000000000000, 405.0000000000000000 ) ) ;
#10 = DIRECTION ( 'NONE',  ( 0.000000000000000000, 0.000000000000000000, 1.000000000000000000 ) ) ;
#11 = CC_DESIGN_PERSON_AND_ORGANIZATION_ASSIGNMENT ( #63, #162, ( #59 ) ) ;
#12 =( NAMED_UNIT ( * ) PLANE_ANGLE_UNIT ( ) SI_UNIT ( $, .RADIAN. ) );
#13 = CYLINDRICAL_SURFACE ( 'NONE', #238, 7.000000000000000000 ) ;
#14 = CC_DESIGN_APPROVAL ( #251, ( #203 ) ) ;
#15 = DIRECTION ( 'NONE',  ( 1.000000000000000000, 0.000000000000000000, -0.000000000000000000 ) ) ;
#16 = DIRECTION ( 'NONE',  ( 0.000000000000000000, 0.000000000000000000, 1.000000000000000000 ) ) ;
#17 = CARTESIAN_POINT ( 'NONE',  ( 0.000000000000000000, 0.000000000000000000, 0.000000000000000000 ) ) ;
#18 = EDGE_LOOP ( 'NONE', ( #66, #206 ) ) ;
#19 = DATE_TIME_ROLE ( 'classification_date' ) ;
#20 = APPROVAL_ROLE ( '' ) ;
#21 = SHAPE_DEFINITION_REPRESENTATION ( #199, #82 ) ;
#22 = CALENDAR_DATE ( 2022, 7, 7 ) ;
#23 = LOCAL_TIME ( 19, 29, 50.00000000000000000, #61 ) ;
#24 = DIRECTION ( 'NONE',  ( 0.000000000000000000, 0.000000000000000000, 1.000000000000000000 ) ) ;
#25 = DIRECTION ( 'NONE',  ( 0.000000000000000000, 0.000000000000000000, 1.000000000000000000 ) ) ;
#26 = AXIS2_PLACEMENT_3D ( 'NONE', #234, #255, #149 ) ;
#27 = CC_DESIGN_DATE_AND_TIME_ASSIGNMENT ( #84, #140, ( #203 ) ) ;
#28 = DIRECTION ( 'NONE',  ( -0.000000000000000000, -0.000000000000000000, -1.000000000000000000 ) ) ;
#29 = EDGE_LOOP ( 'NONE', ( #71, #31, #154, #231 ) ) ;
#30 = DIRECTION ( 'NONE',  ( 1.000000000000000000, 0.000000000000000000, 0.000000000000000000 ) ) ;
#31 = ORIENTED_EDGE ( 'NONE', *, *, #194, .F. ) ;
#32 = VERTEX_POINT ( 'NONE', #230 ) ;
#33 = PLANE ( 'NONE',  #145 ) ;
#34 = VECTOR ( 'NONE', #28, 1000.000000000000000 ) ;
#35 = ORIENTED_EDGE ( 'NONE', *, *, #86, .T. ) ;
#36 = EDGE_LOOP ( 'NONE', ( #92, #94, #3, #150 ) ) ;
#37 = PLANE ( 'NONE',  #83 ) ;
#38 = CIRCLE ( 'NONE', #235, 4.250000000000000000 ) ;
#39 = COORDINATED_UNIVERSAL_TIME_OFFSET ( 1, 0, .AHEAD. ) ;
#40 = COORDINATED_UNIVERSAL_TIME_OFFSET ( 1, 0, .AHEAD. ) ;
#41 = PERSON_AND_ORGANIZATION ( #202, #78 ) ;
#42 = ADVANCED_FACE ( 'NONE', ( #115 ), #113, .F. ) ;
#43 = APPROVAL_ROLE ( '' ) ;
#44 = AXIS2_PLACEMENT_3D ( 'NONE', #54, #58, #135 ) ;
#45 = SECURITY_CLASSIFICATION ( '', '', #143 ) ;
#46 = ORIENTED_EDGE ( 'NONE', *, *, #167, .F. ) ;
#47 = DIRECTION ( 'NONE',  ( 1.000000000000000000, 0.000000000000000000, 0.000000000000000000 ) ) ;
#48 = LINE ( 'NONE', #67, #34 ) ;
#49 = ORIENTED_EDGE ( 'NONE', *, *, #197, .F. ) ;
#50 = ADVANCED_FACE ( 'NONE', ( #97 ), #13, .T. ) ;
#51 = CYLINDRICAL_SURFACE ( 'NONE', #146, 4.250000000000000000 ) ;
#52 = ORIENTED_EDGE ( 'NONE', *, *, #98, .F. ) ;
#53 = CC_DESIGN_PERSON_AND_ORGANIZATION_ASSIGNMENT ( #161, #6, ( #203 ) ) ;
#54 = CARTESIAN_POINT ( 'NONE',  ( 0.000000000000000000, 0.000000000000000000, 0.000000000000000000 ) ) ;
#55 = VECTOR ( 'NONE', #244, 1000.000000000000000 ) ;
#56 = CARTESIAN_POINT ( 'NONE',  ( 0.000000000000000000, 0.000000000000000000, 405.0000000000000000 ) ) ;
#57 = DIRECTION ( 'NONE',  ( 1.000000000000000000, 0.000000000000000000, -0.000000000000000000 ) ) ;
#58 = DIRECTION ( 'NONE',  ( 0.000000000000000000, 0.000000000000000000, 1.000000000000000000 ) ) ;
#59 = PRODUCT_DEFINITION_FORMATION_WITH_SPECIFIED_SOURCE ( 'LIBOVOLNÝ', '', #103, .NOT_KNOWN. ) ;
#60 = CC_DESIGN_PERSON_AND_ORGANIZATION_ASSIGNMENT ( #2, #118, ( #103 ) ) ;
#61 = COORDINATED_UNIVERSAL_TIME_OFFSET ( 1, 0, .AHEAD. ) ;
#62 = APPLICATION_CONTEXT ( 'configuration controlled 3d designs of mechanical parts and assemblies' ) ;
#63 = PERSON_AND_ORGANIZATION ( #202, #78 ) ;
#64 = APPROVAL ( #99, 'NEURÈENÝ' ) ;
#65 = DATE_AND_TIME ( #180, #23 ) ;
#66 = ORIENTED_EDGE ( 'NONE', *, *, #194, .T. ) ;
#67 = CARTESIAN_POINT ( 'NONE',  ( -4.250000000000000000, 0.000000000000000000, 405.0000000000000000 ) ) ;
#68 = CARTESIAN_POINT ( 'NONE',  ( 0.000000000000000000, 0.000000000000000000, 0.000000000000000000 ) ) ;
#69 = APPROVAL_PERSON_ORGANIZATION ( #241, #251, #139 ) ;
#70 = FACE_OUTER_BOUND ( 'NONE', #36, .T. ) ;
#71 = ORIENTED_EDGE ( 'NONE', *, *, #4, .F. ) ;
#72 = DIRECTION ( 'NONE',  ( 1.000000000000000000, 0.000000000000000000, 0.000000000000000000 ) ) ;
#73 = DIRECTION ( 'NONE',  ( 0.000000000000000000, 0.000000000000000000, 1.000000000000000000 ) ) ;
#74 = AXIS2_PLACEMENT_3D ( 'NONE', #109, #186, #47 ) ;
#75 = VERTEX_POINT ( 'NONE', #209 ) ;
#76 = ADVANCED_FACE ( 'NONE', ( #70 ), #137, .T. ) ;
#77 = DIRECTION ( 'NONE',  ( -0.000000000000000000, -0.000000000000000000, -1.000000000000000000 ) ) ;
#78 = ORGANIZATION ( 'NEURÈENÝ', 'NEURÈENÝ', '' ) ;
#79 = PERSON_AND_ORGANIZATION ( #202, #78 ) ;
#80 = ORIENTED_EDGE ( 'NONE', *, *, #197, .T. ) ;
#81 = PERSON_AND_ORGANIZATION ( #202, #78 ) ;
#82 = ADVANCED_BREP_SHAPE_REPRESENTATION ( 'a9a3', ( #134, #138 ), #8 ) ;
#83 = AXIS2_PLACEMENT_3D ( 'NONE', #153, #233, #246 ) ;
#84 = DATE_AND_TIME ( #216, #127 ) ;
#85 = MECHANICAL_CONTEXT ( 'NONE', #62, 'mechanical' ) ;
#86 = EDGE_CURVE ( 'NONE', #32, #243, #130, .T. ) ;
#87 =( LENGTH_UNIT ( ) NAMED_UNIT ( * ) SI_UNIT ( .MILLI., .METRE. ) );
#88 = EDGE_LOOP ( 'NONE', ( #184, #151, #111, #245 ) ) ;
#89 = DIRECTION ( 'NONE',  ( 1.000000000000000000, 0.000000000000000000, 0.000000000000000000 ) ) ;
#90 = APPROVAL_PERSON_ORGANIZATION ( #236, #121, #43 ) ;
#91 = ORIENTED_EDGE ( 'NONE', *, *, #136, .F. ) ;
#92 = ORIENTED_EDGE ( 'NONE', *, *, #214, .F. ) ;
#93 = DIRECTION ( 'NONE',  ( 0.000000000000000000, 0.000000000000000000, 1.000000000000000000 ) ) ;
#94 = ORIENTED_EDGE ( 'NONE', *, *, #167, .T. ) ;
#95 = DIRECTION ( 'NONE',  ( -1.000000000000000000, 0.000000000000000000, 0.000000000000000000 ) ) ;
#96 = ADVANCED_FACE ( 'NONE', ( #189 ), #156, .T. ) ;
#97 = FACE_OUTER_BOUND ( 'NONE', #131, .T. ) ;
#98 = EDGE_CURVE ( 'NONE', #195, #243, #122, .T. ) ;
#99 = APPROVAL_STATUS ( 'not_yet_approved' ) ;
#100 = DATE_AND_TIME ( #221, #254 ) ;
#101 = CC_DESIGN_PERSON_AND_ORGANIZATION_ASSIGNMENT ( #81, #222, ( #59 ) ) ;
#102 = PERSON_AND_ORGANIZATION_ROLE ( 'classification_officer' ) ;
#103 = PRODUCT ( 'a9a3', 'a9a3', '', ( #85 ) ) ;
#104 = PRODUCT_RELATED_PRODUCT_CATEGORY ( 'detail', '', ( #103 ) ) ;
#105 = ORIENTED_EDGE ( 'NONE', *, *, #214, .T. ) ;
#106 = CARTESIAN_POINT ( 'NONE',  ( 0.000000000000000000, 0.000000000000000000, 5.000000000000000000 ) ) ;
#107 = CARTESIAN_POINT ( 'NONE',  ( -4.250000000000000000, 0.000000000000000000, 5.000000000000000000 ) ) ;
#108 = LOCAL_TIME ( 19, 29, 50.00000000000000000, #39 ) ;
#109 = CARTESIAN_POINT ( 'NONE',  ( 0.000000000000000000, 0.000000000000000000, 5.000000000000000000 ) ) ;
#110 = CC_DESIGN_DATE_AND_TIME_ASSIGNMENT ( #220, #19, ( #45 ) ) ;
#111 = ORIENTED_EDGE ( 'NONE', *, *, #136, .T. ) ;
#112 = DIRECTION ( 'NONE',  ( -1.000000000000000000, 0.000000000000000000, 0.000000000000000000 ) ) ;
#113 = PLANE ( 'NONE',  #165 ) ;
#114 = CC_DESIGN_SECURITY_CLASSIFICATION ( #45, ( #59 ) ) ;
#115 = FACE_OUTER_BOUND ( 'NONE', #229, .T. ) ;
#116 = ORIENTED_EDGE ( 'NONE', *, *, #185, .F. ) ;
#117 = ADVANCED_FACE ( 'NONE', ( #210 ), #33, .T. ) ;
#118 = PERSON_AND_ORGANIZATION_ROLE ( 'design_owner' ) ;
#119 = AXIS2_PLACEMENT_3D ( 'NONE', #106, #10, #89 ) ;
#120 = DATE_AND_TIME ( #22, #158 ) ;
#121 = APPROVAL ( #163, 'NEURÈENÝ' ) ;
#122 = CIRCLE ( 'NONE', #44, 7.000000000000000000 ) ;
#123 = CARTESIAN_POINT ( 'NONE',  ( -7.000000000000000000, 0.000000000000000000, 0.000000000000000000 ) ) ;
#124 =( NAMED_UNIT ( * ) SI_UNIT ( $, .STERADIAN. ) SOLID_ANGLE_UNIT ( ) );
#125 = APPLICATION_PROTOCOL_DEFINITION ( 'international standard', 'config_control_design', 1994, #62 ) ;
#126 = CIRCLE ( 'NONE', #196, 4.250000000000000000 ) ;
#127 = LOCAL_TIME ( 19, 29, 50.00000000000000000, #40 ) ;
#128 = DIRECTION ( 'NONE',  ( 0.000000000000000000, 0.000000000000000000, 1.000000000000000000 ) ) ;
#129 = DIRECTION ( 'NONE',  ( -1.000000000000000000, 0.000000000000000000, 0.000000000000000000 ) ) ;
#130 = LINE ( 'NONE', #250, #247 ) ;
#131 = EDGE_LOOP ( 'NONE', ( #46, #116, #35, #80 ) ) ;
#132 = EDGE_CURVE ( 'NONE', #188, #182, #126, .T. ) ;
#133 = FACE_OUTER_BOUND ( 'NONE', #211, .T. ) ;
#134 = MANIFOLD_SOLID_BREP ( 'Pøidat vysunutím3', #157 ) ;
#135 = DIRECTION ( 'NONE',  ( 1.000000000000000000, 0.000000000000000000, 0.000000000000000000 ) ) ;
#136 = EDGE_CURVE ( 'NONE', #182, #188, #223, .T. ) ;
#137 = CYLINDRICAL_SURFACE ( 'NONE', #26, 7.000000000000000000 ) ;
#138 = AXIS2_PLACEMENT_3D ( 'NONE', #68, #166, #168 ) ;
#139 = APPROVAL_ROLE ( '' ) ;
#140 = DATE_TIME_ROLE ( 'creation_date' ) ;
#141 = ADVANCED_FACE ( 'NONE', ( #212, #133 ), #37, .T. ) ;
#142 = CC_DESIGN_APPROVAL ( #64, ( #45 ) ) ;
#143 = SECURITY_CLASSIFICATION_LEVEL ( 'unclassified' ) ;
#144 = APPROVAL_DATE_TIME ( #120, #121 ) ;
#145 = AXIS2_PLACEMENT_3D ( 'NONE', #191, #215, #15 ) ;
#146 = AXIS2_PLACEMENT_3D ( 'NONE', #147, #207, #112 ) ;
#147 = CARTESIAN_POINT ( 'NONE',  ( 0.000000000000000000, 0.000000000000000000, 405.0000000000000000 ) ) ;
#148 = DIRECTION ( 'NONE',  ( -0.000000000000000000, -0.000000000000000000, -1.000000000000000000 ) ) ;
#149 = DIRECTION ( 'NONE',  ( -1.000000000000000000, 0.000000000000000000, 0.000000000000000000 ) ) ;
#150 = ORIENTED_EDGE ( 'NONE', *, *, #86, .F. ) ;
#151 = ORIENTED_EDGE ( 'NONE', *, *, #4, .T. ) ;
#152 = VECTOR ( 'NONE', #192, 1000.000000000000000 ) ;
#153 = CARTESIAN_POINT ( 'NONE',  ( 0.000000000000000000, 0.000000000000000000, 5.000000000000000000 ) ) ;
#154 = ORIENTED_EDGE ( 'NONE', *, *, #239, .T. ) ;
#155 = CC_DESIGN_PERSON_AND_ORGANIZATION_ASSIGNMENT ( #41, #102, ( #45 ) ) ;
#156 = CYLINDRICAL_SURFACE ( 'NONE', #200, 4.250000000000000000 ) ;
#157 = CLOSED_SHELL ( 'NONE', ( #96, #76, #50, #141, #42, #160, #117 ) ) ;
#158 = LOCAL_TIME ( 19, 29, 50.00000000000000000, #176 ) ;
#159 = UNCERTAINTY_MEASURE_WITH_UNIT (LENGTH_MEASURE( 1.000000000000000082E-05 ), #87, 'distance_accuracy_value', 'NONE');
#160 = ADVANCED_FACE ( 'NONE', ( #226 ), #51, .T. ) ;
#161 = PERSON_AND_ORGANIZATION ( #202, #78 ) ;
#162 = PERSON_AND_ORGANIZATION_ROLE ( 'design_supplier' ) ;
#163 = APPROVAL_STATUS ( 'not_yet_approved' ) ;
#164 = CARTESIAN_POINT ( 'NONE',  ( 0.000000000000000000, 0.000000000000000000, 405.0000000000000000 ) ) ;
#165 = AXIS2_PLACEMENT_3D ( 'NONE', #17, #16, #57 ) ;
#166 = DIRECTION ( 'NONE',  ( 0.000000000000000000, 0.000000000000000000, 1.000000000000000000 ) ) ;
#167 = EDGE_CURVE ( 'NONE', #253, #195, #224, .T. ) ;
#168 = DIRECTION ( 'NONE',  ( 1.000000000000000000, 0.000000000000000000, 0.000000000000000000 ) ) ;
#169 = AXIS2_PLACEMENT_3D ( 'NONE', #242, #24, #208 ) ;
#170 = LINE ( 'NONE', #249, #152 ) ;
#171 = ORIENTED_EDGE ( 'NONE', *, *, #132, .F. ) ;
#172 = DIRECTION ( 'NONE',  ( 1.000000000000000000, 0.000000000000000000, 0.000000000000000000 ) ) ;
#173 = CARTESIAN_POINT ( 'NONE',  ( 0.000000000000000000, 0.000000000000000000, 5.000000000000000000 ) ) ;
#174 = DIRECTION ( 'NONE',  ( -0.000000000000000000, -0.000000000000000000, -1.000000000000000000 ) ) ;
#175 = AXIS2_PLACEMENT_3D ( 'NONE', #252, #73, #72 ) ;
#176 = COORDINATED_UNIVERSAL_TIME_OFFSET ( 1, 0, .AHEAD. ) ;
#177 = EDGE_LOOP ( 'NONE', ( #171, #91 ) ) ;
#178 = APPLICATION_PROTOCOL_DEFINITION ( 'international standard', 'config_control_design', 1994, #213 ) ;
#179 = EDGE_CURVE ( 'NONE', #75, #193, #38, .T. ) ;
#180 = CALENDAR_DATE ( 2022, 7, 7 ) ;
#181 = CARTESIAN_POINT ( 'NONE',  ( 7.000000000000000000, 8.572527594031473190E-16, 5.000000000000000000 ) ) ;
#182 = VERTEX_POINT ( 'NONE', #205 ) ;
#183 = CARTESIAN_POINT ( 'NONE',  ( -4.250000000000000000, 0.000000000000000000, 405.0000000000000000 ) ) ;
#184 = ORIENTED_EDGE ( 'NONE', *, *, #179, .F. ) ;
#185 = EDGE_CURVE ( 'NONE', #32, #253, #1, .T. ) ;
#186 = DIRECTION ( 'NONE',  ( 0.000000000000000000, 0.000000000000000000, 1.000000000000000000 ) ) ;
#187 = DIRECTION ( 'NONE',  ( 1.000000000000000000, 0.000000000000000000, 0.000000000000000000 ) ) ;
#188 = VERTEX_POINT ( 'NONE', #107 ) ;
#189 = FACE_OUTER_BOUND ( 'NONE', #88, .T. ) ;
#190 = APPROVAL_PERSON_ORGANIZATION ( #79, #64, #20 ) ;
#191 = CARTESIAN_POINT ( 'NONE',  ( 0.000000000000000000, 0.000000000000000000, 405.0000000000000000 ) ) ;
#192 = DIRECTION ( 'NONE',  ( -0.000000000000000000, -0.000000000000000000, -1.000000000000000000 ) ) ;
#193 = VERTEX_POINT ( 'NONE', #183 ) ;
#194 = EDGE_CURVE ( 'NONE', #193, #75, #204, .T. ) ;
#195 = VERTEX_POINT ( 'NONE', #225 ) ;
#196 = AXIS2_PLACEMENT_3D ( 'NONE', #173, #93, #172 ) ;
#197 = EDGE_CURVE ( 'NONE', #243, #195, #232, .T. ) ;
#198 = CALENDAR_DATE ( 2022, 7, 7 ) ;
#199 = PRODUCT_DEFINITION_SHAPE ( 'NONE', 'NONE',  #203 ) ;
#200 = AXIS2_PLACEMENT_3D ( 'NONE', #56, #148, #95 ) ;
#201 = APPROVAL_DATE_TIME ( #65, #251 ) ;
#202 = PERSON ( 'NEURÈENÝ', 'NEURÈENÝ', 'NEURÈENÝ', ('NEURÈENÝ'), ('NEURÈENÝ'), ('NEURÈENÝ') ) ;
#203 = PRODUCT_DEFINITION ( 'NEZNÁMÝ', '', #59, #217 ) ;
#204 = CIRCLE ( 'NONE', #248, 4.250000000000000000 ) ;
#205 = CARTESIAN_POINT ( 'NONE',  ( 4.250000000000000000, 5.204748896376250699E-16, 5.000000000000000000 ) ) ;
#206 = ORIENTED_EDGE ( 'NONE', *, *, #179, .T. ) ;
#207 = DIRECTION ( 'NONE',  ( -0.000000000000000000, -0.000000000000000000, -1.000000000000000000 ) ) ;
#208 = DIRECTION ( 'NONE',  ( 1.000000000000000000, 0.000000000000000000, 0.000000000000000000 ) ) ;
#209 = CARTESIAN_POINT ( 'NONE',  ( 4.250000000000000000, 5.204748896376250699E-16, 405.0000000000000000 ) ) ;
#210 = FACE_OUTER_BOUND ( 'NONE', #18, .T. ) ;
#211 = EDGE_LOOP ( 'NONE', ( #227, #105 ) ) ;
#212 = FACE_BOUND ( 'NONE', #177, .T. ) ;
#213 = APPLICATION_CONTEXT ( 'configuration controlled 3d designs of mechanical parts and assemblies' ) ;
#214 = EDGE_CURVE ( 'NONE', #253, #32, #240, .T. ) ;
#215 = DIRECTION ( 'NONE',  ( 0.000000000000000000, 0.000000000000000000, 1.000000000000000000 ) ) ;
#216 = CALENDAR_DATE ( 2022, 7, 7 ) ;
#217 = DESIGN_CONTEXT ( 'detailed design', #213, 'design' ) ;
#218 = APPROVAL_STATUS ( 'not_yet_approved' ) ;
#219 = CC_DESIGN_APPROVAL ( #121, ( #59 ) ) ;
#220 = DATE_AND_TIME ( #198, #108 ) ;
#221 = CALENDAR_DATE ( 2022, 7, 7 ) ;
#222 = PERSON_AND_ORGANIZATION_ROLE ( 'creator' ) ;
#223 = CIRCLE ( 'NONE', #175, 4.250000000000000000 ) ;
#224 = LINE ( 'NONE', #181, #55 ) ;
#225 = CARTESIAN_POINT ( 'NONE',  ( 7.000000000000000000, 8.572527594031473190E-16, 0.000000000000000000 ) ) ;
#226 = FACE_OUTER_BOUND ( 'NONE', #29, .T. ) ;
#227 = ORIENTED_EDGE ( 'NONE', *, *, #185, .T. ) ;
#228 = CARTESIAN_POINT ( 'NONE',  ( 0.000000000000000000, 0.000000000000000000, 5.000000000000000000 ) ) ;
#229 = EDGE_LOOP ( 'NONE', ( #49, #52 ) ) ;
#230 = CARTESIAN_POINT ( 'NONE',  ( -7.000000000000000000, 0.000000000000000000, 5.000000000000000000 ) ) ;
#231 = ORIENTED_EDGE ( 'NONE', *, *, #132, .T. ) ;
#232 = CIRCLE ( 'NONE', #169, 7.000000000000000000 ) ;
#233 = DIRECTION ( 'NONE',  ( 0.000000000000000000, 0.000000000000000000, 1.000000000000000000 ) ) ;
#234 = CARTESIAN_POINT ( 'NONE',  ( 0.000000000000000000, 0.000000000000000000, 5.000000000000000000 ) ) ;
#235 = AXIS2_PLACEMENT_3D ( 'NONE', #164, #128, #187 ) ;
#236 = PERSON_AND_ORGANIZATION ( #202, #78 ) ;
#237 = COORDINATED_UNIVERSAL_TIME_OFFSET ( 1, 0, .AHEAD. ) ;
#238 = AXIS2_PLACEMENT_3D ( 'NONE', #228, #174, #129 ) ;
#239 = EDGE_CURVE ( 'NONE', #193, #188, #48, .T. ) ;
#240 = CIRCLE ( 'NONE', #119, 7.000000000000000000 ) ;
#241 = PERSON_AND_ORGANIZATION ( #202, #78 ) ;
#242 = CARTESIAN_POINT ( 'NONE',  ( 0.000000000000000000, 0.000000000000000000, 0.000000000000000000 ) ) ;
#243 = VERTEX_POINT ( 'NONE', #123 ) ;
#244 = DIRECTION ( 'NONE',  ( -0.000000000000000000, -0.000000000000000000, -1.000000000000000000 ) ) ;
#245 = ORIENTED_EDGE ( 'NONE', *, *, #239, .F. ) ;
#246 = DIRECTION ( 'NONE',  ( 1.000000000000000000, 0.000000000000000000, -0.000000000000000000 ) ) ;
#247 = VECTOR ( 'NONE', #77, 1000.000000000000000 ) ;
#248 = AXIS2_PLACEMENT_3D ( 'NONE', #9, #25, #30 ) ;
#249 = CARTESIAN_POINT ( 'NONE',  ( 4.250000000000000000, 5.204748896376250699E-16, 405.0000000000000000 ) ) ;
#250 = CARTESIAN_POINT ( 'NONE',  ( -7.000000000000000000, 0.000000000000000000, 5.000000000000000000 ) ) ;
#251 = APPROVAL ( #218, 'NEURÈENÝ' ) ;
#252 = CARTESIAN_POINT ( 'NONE',  ( 0.000000000000000000, 0.000000000000000000, 5.000000000000000000 ) ) ;
#253 = VERTEX_POINT ( 'NONE', #7 ) ;
#254 = LOCAL_TIME ( 19, 29, 50.00000000000000000, #237 ) ;
#255 = DIRECTION ( 'NONE',  ( -0.000000000000000000, -0.000000000000000000, -1.000000000000000000 ) ) ;
ENDSEC;
END-ISO-10303-21;
