ISO-10303-21;
HEADER;
FILE_DESCRIPTION (( 'STEP AP203' ),
    '1' );
FILE_NAME ('6ce9.STEP',
    '2022-07-07T17:11:17',
    ( '' ),
    ( '' ),
    'SwSTEP 2.0',
    'SolidWorks 2019',
    '' );
FILE_SCHEMA (( 'CONFIG_CONTROL_DESIGN' ));
ENDSEC;

DATA;
#1 = CIRCLE ( 'NONE', #149, 11.00000000000000000 ) ;
#2 = EDGE_LOOP ( 'NONE', ( #145, #160 ) ) ;
#3 = AXIS2_PLACEMENT_3D ( 'NONE', #127, #144, #243 ) ;
#4 = EDGE_LOOP ( 'NONE', ( #87, #104, #61, #105 ) ) ;
#5 = COORDINATED_UNIVERSAL_TIME_OFFSET ( 1, 0, .AHEAD. ) ;
#6 = VERTEX_POINT ( 'NONE', #40 ) ;
#7 = CARTESIAN_POINT ( 'NONE',  ( 0.000000000000000000, 0.000000000000000000, 0.000000000000000000 ) ) ;
#8 = ADVANCED_FACE ( 'NONE', ( #63 ), #197, .F. ) ;
#9 = PRODUCT_DEFINITION_FORMATION_WITH_SPECIFIED_SOURCE ( 'LIBOVOLNÝ', '', #246, .NOT_KNOWN. ) ;
#10 = PERSON_AND_ORGANIZATION ( #169, #54 ) ;
#11 = COORDINATED_UNIVERSAL_TIME_OFFSET ( 1, 0, .AHEAD. ) ;
#12 = APPROVAL_STATUS ( 'not_yet_approved' ) ;
#13 = PERSON_AND_ORGANIZATION ( #169, #54 ) ;
#14 = DATE_TIME_ROLE ( 'classification_date' ) ;
#15 = AXIS2_PLACEMENT_3D ( 'NONE', #208, #45, #220 ) ;
#16 = AXIS2_PLACEMENT_3D ( 'NONE', #116, #56, #216 ) ;
#17 = EDGE_CURVE ( 'NONE', #125, #6, #122, .T. ) ;
#18 = FACE_OUTER_BOUND ( 'NONE', #2, .T. ) ;
#19 = LINE ( 'NONE', #95, #94 ) ;
#20 = CYLINDRICAL_SURFACE ( 'NONE', #224, 11.00000000000000000 ) ;
#21 = DIRECTION ( 'NONE',  ( -0.000000000000000000, -0.000000000000000000, -1.000000000000000000 ) ) ;
#22 = AXIS2_PLACEMENT_3D ( 'NONE', #7, #88, #49 ) ;
#23 = ORIENTED_EDGE ( 'NONE', *, *, #17, .T. ) ;
#24 = VERTEX_POINT ( 'NONE', #115 ) ;
#25 = PERSON_AND_ORGANIZATION_ROLE ( 'creator' ) ;
#26 = CC_DESIGN_PERSON_AND_ORGANIZATION_ASSIGNMENT ( #72, #244, ( #9 ) ) ;
#27 = ORIENTED_EDGE ( 'NONE', *, *, #17, .F. ) ;
#28 = DIRECTION ( 'NONE',  ( 0.000000000000000000, 0.000000000000000000, 1.000000000000000000 ) ) ;
#29 = CC_DESIGN_PERSON_AND_ORGANIZATION_ASSIGNMENT ( #10, #166, ( #246 ) ) ;
#30 = PERSON_AND_ORGANIZATION ( #169, #54 ) ;
#31 = AXIS2_PLACEMENT_3D ( 'NONE', #38, #78, #57 ) ;
#32 = COORDINATED_UNIVERSAL_TIME_OFFSET ( 1, 0, .AHEAD. ) ;
#33 = ADVANCED_FACE ( 'NONE', ( #18 ), #231, .T. ) ;
#34 = CLOSED_SHELL ( 'NONE', ( #60, #176, #93, #170, #8, #74, #33 ) ) ;
#35 = CARTESIAN_POINT ( 'NONE',  ( 0.000000000000000000, 0.000000000000000000, 7.000000000000000000 ) ) ;
#36 = DIRECTION ( 'NONE',  ( -0.000000000000000000, -0.000000000000000000, -1.000000000000000000 ) ) ;
#37 = CARTESIAN_POINT ( 'NONE',  ( 7.500000000000000000, 9.184850993605147944E-16, 132.0000000000000000 ) ) ;
#38 = CARTESIAN_POINT ( 'NONE',  ( 0.000000000000000000, 0.000000000000000000, 132.0000000000000000 ) ) ;
#39 = APPROVAL_PERSON_ORGANIZATION ( #168, #89, #189 ) ;
#40 = CARTESIAN_POINT ( 'NONE',  ( 7.500000000000000000, 9.184850993605147944E-16, 7.000000000000000000 ) ) ;
#41 = AXIS2_PLACEMENT_3D ( 'NONE', #143, #62, #141 ) ;
#42 = ORIENTED_EDGE ( 'NONE', *, *, #82, .T. ) ;
#43 = EDGE_LOOP ( 'NONE', ( #27, #183, #234, #180 ) ) ;
#44 = APPLICATION_PROTOCOL_DEFINITION ( 'international standard', 'config_control_design', 1994, #155 ) ;
#45 = DIRECTION ( 'NONE',  ( 0.000000000000000000, 0.000000000000000000, 1.000000000000000000 ) ) ;
#46 = COORDINATED_UNIVERSAL_TIME_OFFSET ( 1, 0, .AHEAD. ) ;
#47 = CC_DESIGN_PERSON_AND_ORGANIZATION_ASSIGNMENT ( #13, #25, ( #254 ) ) ;
#48 = LOCAL_TIME ( 19, 11, 17.00000000000000000, #245 ) ;
#49 = DIRECTION ( 'NONE',  ( 1.000000000000000000, 0.000000000000000000, 0.000000000000000000 ) ) ;
#50 = APPROVAL_ROLE ( '' ) ;
#51 = AXIS2_PLACEMENT_3D ( 'NONE', #35, #252, #58 ) ;
#52 = APPROVAL_PERSON_ORGANIZATION ( #186, #99, #90 ) ;
#53 = ADVANCED_BREP_SHAPE_REPRESENTATION ( '6ce9', ( #222, #22 ), #132 ) ;
#54 = ORGANIZATION ( 'NEURÈENÝ', 'NEURÈENÝ', '' ) ;
#55 = EDGE_CURVE ( 'NONE', #162, #106, #19, .T. ) ;
#56 = DIRECTION ( 'NONE',  ( -0.000000000000000000, -0.000000000000000000, -1.000000000000000000 ) ) ;
#57 = DIRECTION ( 'NONE',  ( 1.000000000000000000, 0.000000000000000000, 0.000000000000000000 ) ) ;
#58 = DIRECTION ( 'NONE',  ( 1.000000000000000000, 0.000000000000000000, 0.000000000000000000 ) ) ;
#59 = FACE_OUTER_BOUND ( 'NONE', #217, .T. ) ;
#60 = ADVANCED_FACE ( 'NONE', ( #59 ), #151, .T. ) ;
#61 = ORIENTED_EDGE ( 'NONE', *, *, #55, .T. ) ;
#62 = DIRECTION ( 'NONE',  ( 0.000000000000000000, 0.000000000000000000, 1.000000000000000000 ) ) ;
#63 = FACE_OUTER_BOUND ( 'NONE', #121, .T. ) ;
#64 = DATE_TIME_ROLE ( 'creation_date' ) ;
#65 = ORIENTED_EDGE ( 'NONE', *, *, #137, .F. ) ;
#66 = DIRECTION ( 'NONE',  ( 1.000000000000000000, 0.000000000000000000, 0.000000000000000000 ) ) ;
#67 = MECHANICAL_CONTEXT ( 'NONE', #155, 'mechanical' ) ;
#68 = AXIS2_PLACEMENT_3D ( 'NONE', #76, #36, #114 ) ;
#69 = PRODUCT_RELATED_PRODUCT_CATEGORY ( 'detail', '', ( #246 ) ) ;
#70 = CALENDAR_DATE ( 2022, 7, 7 ) ;
#71 = CALENDAR_DATE ( 2022, 7, 7 ) ;
#72 = PERSON_AND_ORGANIZATION ( #169, #54 ) ;
#73 = PERSON_AND_ORGANIZATION_ROLE ( 'classification_officer' ) ;
#74 = ADVANCED_FACE ( 'NONE', ( #136 ), #228, .T. ) ;
#75 = AXIS2_PLACEMENT_3D ( 'NONE', #173, #177, #255 ) ;
#76 = CARTESIAN_POINT ( 'NONE',  ( 0.000000000000000000, 0.000000000000000000, 132.0000000000000000 ) ) ;
#77 = DIRECTION ( 'NONE',  ( -1.000000000000000000, 0.000000000000000000, 0.000000000000000000 ) ) ;
#78 = DIRECTION ( 'NONE',  ( 0.000000000000000000, 0.000000000000000000, 1.000000000000000000 ) ) ;
#79 = DIRECTION ( 'NONE',  ( 1.000000000000000000, 0.000000000000000000, -0.000000000000000000 ) ) ;
#80 = LOCAL_TIME ( 19, 11, 17.00000000000000000, #32 ) ;
#81 = FACE_OUTER_BOUND ( 'NONE', #179, .T. ) ;
#82 = EDGE_CURVE ( 'NONE', #196, #123, #190, .T. ) ;
#83 = ORIENTED_EDGE ( 'NONE', *, *, #55, .F. ) ;
#84 = EDGE_CURVE ( 'NONE', #161, #125, #126, .T. ) ;
#85 = ORIENTED_EDGE ( 'NONE', *, *, #249, .F. ) ;
#86 = CALENDAR_DATE ( 2022, 7, 7 ) ;
#87 = ORIENTED_EDGE ( 'NONE', *, *, #82, .F. ) ;
#88 = DIRECTION ( 'NONE',  ( 0.000000000000000000, 0.000000000000000000, 1.000000000000000000 ) ) ;
#89 = APPROVAL ( #204, 'NEURÈENÝ' ) ;
#90 = APPROVAL_ROLE ( '' ) ;
#91 = APPROVAL_DATE_TIME ( #129, #113 ) ;
#92 = CIRCLE ( 'NONE', #3, 11.00000000000000000 ) ;
#93 = ADVANCED_FACE ( 'NONE', ( #100 ), #20, .T. ) ;
#94 = VECTOR ( 'NONE', #152, 1000.000000000000000 ) ;
#95 = CARTESIAN_POINT ( 'NONE',  ( -11.00000000000000000, 0.000000000000000000, 7.000000000000000000 ) ) ;
#96 = AXIS2_PLACEMENT_3D ( 'NONE', #101, #117, #98 ) ;
#97 = VECTOR ( 'NONE', #128, 1000.000000000000000 ) ;
#98 = DIRECTION ( 'NONE',  ( 1.000000000000000000, 0.000000000000000000, 0.000000000000000000 ) ) ;
#99 = APPROVAL ( #12, 'NEURÈENÝ' ) ;
#100 = FACE_OUTER_BOUND ( 'NONE', #4, .T. ) ;
#101 = CARTESIAN_POINT ( 'NONE',  ( 0.000000000000000000, 0.000000000000000000, 7.000000000000000000 ) ) ;
#102 = DIRECTION ( 'NONE',  ( 0.000000000000000000, 0.000000000000000000, 1.000000000000000000 ) ) ;
#103 = CIRCLE ( 'NONE', #15, 7.500000000000000000 ) ;
#104 = ORIENTED_EDGE ( 'NONE', *, *, #199, .F. ) ;
#105 = ORIENTED_EDGE ( 'NONE', *, *, #139, .T. ) ;
#106 = VERTEX_POINT ( 'NONE', #171 ) ;
#107 = ORIENTED_EDGE ( 'NONE', *, *, #229, .F. ) ;
#108 = ORIENTED_EDGE ( 'NONE', *, *, #139, .F. ) ;
#109 = EDGE_CURVE ( 'NONE', #123, #106, #1, .T. ) ;
#110 = CC_DESIGN_APPROVAL ( #89, ( #9 ) ) ;
#111 = APPROVAL_STATUS ( 'not_yet_approved' ) ;
#112 = DATE_AND_TIME ( #185, #206 ) ;
#113 = APPROVAL ( #111, 'NEURÈENÝ' ) ;
#114 = DIRECTION ( 'NONE',  ( -1.000000000000000000, 0.000000000000000000, 0.000000000000000000 ) ) ;
#115 = CARTESIAN_POINT ( 'NONE',  ( -7.500000000000000000, 0.000000000000000000, 7.000000000000000000 ) ) ;
#116 = CARTESIAN_POINT ( 'NONE',  ( 0.000000000000000000, 0.000000000000000000, 132.0000000000000000 ) ) ;
#117 = DIRECTION ( 'NONE',  ( 0.000000000000000000, 0.000000000000000000, 1.000000000000000000 ) ) ;
#118 = EDGE_CURVE ( 'NONE', #196, #162, #153, .T. ) ;
#119 = CC_DESIGN_APPROVAL ( #99, ( #254 ) ) ;
#120 = ORIENTED_EDGE ( 'NONE', *, *, #118, .T. ) ;
#121 = EDGE_LOOP ( 'NONE', ( #108, #140 ) ) ;
#122 = LINE ( 'NONE', #200, #202 ) ;
#123 = VERTEX_POINT ( 'NONE', #215 ) ;
#124 = CARTESIAN_POINT ( 'NONE',  ( 11.00000000000000000, 1.347111479062088405E-15, 7.000000000000000000 ) ) ;
#125 = VERTEX_POINT ( 'NONE', #37 ) ;
#126 = CIRCLE ( 'NONE', #31, 7.500000000000000000 ) ;
#127 = CARTESIAN_POINT ( 'NONE',  ( 0.000000000000000000, 0.000000000000000000, 7.000000000000000000 ) ) ;
#128 = DIRECTION ( 'NONE',  ( -0.000000000000000000, -0.000000000000000000, -1.000000000000000000 ) ) ;
#129 = DATE_AND_TIME ( #150, #138 ) ;
#130 = PERSON_AND_ORGANIZATION ( #169, #54 ) ;
#131 = APPLICATION_CONTEXT ( 'configuration controlled 3d designs of mechanical parts and assemblies' ) ;
#132 =( GEOMETRIC_REPRESENTATION_CONTEXT ( 3 ) GLOBAL_UNCERTAINTY_ASSIGNED_CONTEXT ( ( #175 ) ) GLOBAL_UNIT_ASSIGNED_CONTEXT ( ( #201, #182, #205 ) ) REPRESENTATION_CONTEXT ( 'NONE', 'WORKASPACE' ) );
#133 = DIRECTION ( 'NONE',  ( 0.000000000000000000, 0.000000000000000000, 1.000000000000000000 ) ) ;
#134 = DIRECTION ( 'NONE',  ( 1.000000000000000000, 0.000000000000000000, 0.000000000000000000 ) ) ;
#135 = CARTESIAN_POINT ( 'NONE',  ( 11.00000000000000000, 1.347111479062088405E-15, 7.000000000000000000 ) ) ;
#136 = FACE_OUTER_BOUND ( 'NONE', #43, .T. ) ;
#137 = EDGE_CURVE ( 'NONE', #24, #6, #194, .T. ) ;
#138 = LOCAL_TIME ( 19, 11, 17.00000000000000000, #46 ) ;
#139 = EDGE_CURVE ( 'NONE', #106, #123, #191, .T. ) ;
#140 = ORIENTED_EDGE ( 'NONE', *, *, #109, .F. ) ;
#141 = DIRECTION ( 'NONE',  ( 1.000000000000000000, 0.000000000000000000, -0.000000000000000000 ) ) ;
#142 = VECTOR ( 'NONE', #193, 1000.000000000000000 ) ;
#143 = CARTESIAN_POINT ( 'NONE',  ( 0.000000000000000000, 0.000000000000000000, 0.000000000000000000 ) ) ;
#144 = DIRECTION ( 'NONE',  ( 0.000000000000000000, 0.000000000000000000, 1.000000000000000000 ) ) ;
#145 = ORIENTED_EDGE ( 'NONE', *, *, #84, .T. ) ;
#146 = APPLICATION_PROTOCOL_DEFINITION ( 'international standard', 'config_control_design', 1994, #131 ) ;
#147 = DATE_AND_TIME ( #71, #48 ) ;
#148 = DATE_AND_TIME ( #70, #80 ) ;
#149 = AXIS2_PLACEMENT_3D ( 'NONE', #174, #192, #134 ) ;
#150 = CALENDAR_DATE ( 2022, 7, 7 ) ;
#151 = CYLINDRICAL_SURFACE ( 'NONE', #68, 7.500000000000000000 ) ;
#152 = DIRECTION ( 'NONE',  ( -0.000000000000000000, -0.000000000000000000, -1.000000000000000000 ) ) ;
#153 = CIRCLE ( 'NONE', #51, 11.00000000000000000 ) ;
#154 = CARTESIAN_POINT ( 'NONE',  ( 0.000000000000000000, 0.000000000000000000, 7.000000000000000000 ) ) ;
#155 = APPLICATION_CONTEXT ( 'configuration controlled 3d designs of mechanical parts and assemblies' ) ;
#156 = AXIS2_PLACEMENT_3D ( 'NONE', #165, #28, #66 ) ;
#157 = CARTESIAN_POINT ( 'NONE',  ( 0.000000000000000000, 0.000000000000000000, 7.000000000000000000 ) ) ;
#158 = CC_DESIGN_DATE_AND_TIME_ASSIGNMENT ( #112, #14, ( #250 ) ) ;
#159 = APPROVAL_PERSON_ORGANIZATION ( #207, #113, #50 ) ;
#160 = ORIENTED_EDGE ( 'NONE', *, *, #249, .T. ) ;
#161 = VERTEX_POINT ( 'NONE', #230 ) ;
#162 = VERTEX_POINT ( 'NONE', #251 ) ;
#163 = CC_DESIGN_PERSON_AND_ORGANIZATION_ASSIGNMENT ( #30, #73, ( #250 ) ) ;
#164 = DIRECTION ( 'NONE',  ( -1.000000000000000000, 0.000000000000000000, 0.000000000000000000 ) ) ;
#165 = CARTESIAN_POINT ( 'NONE',  ( 0.000000000000000000, 0.000000000000000000, 132.0000000000000000 ) ) ;
#166 = PERSON_AND_ORGANIZATION_ROLE ( 'design_owner' ) ;
#167 = AXIS2_PLACEMENT_3D ( 'NONE', #157, #102, #178 ) ;
#168 = PERSON_AND_ORGANIZATION ( #169, #54 ) ;
#169 = PERSON ( 'NEURÈENÝ', 'NEURÈENÝ', 'NEURÈENÝ', ('NEURÈENÝ'), ('NEURÈENÝ'), ('NEURÈENÝ') ) ;
#170 = ADVANCED_FACE ( 'NONE', ( #253, #195 ), #213, .T. ) ;
#171 = CARTESIAN_POINT ( 'NONE',  ( -11.00000000000000000, 0.000000000000000000, 0.000000000000000000 ) ) ;
#172 = CC_DESIGN_APPROVAL ( #113, ( #250 ) ) ;
#173 = CARTESIAN_POINT ( 'NONE',  ( 0.000000000000000000, 0.000000000000000000, 0.000000000000000000 ) ) ;
#174 = CARTESIAN_POINT ( 'NONE',  ( 0.000000000000000000, 0.000000000000000000, 0.000000000000000000 ) ) ;
#175 = UNCERTAINTY_MEASURE_WITH_UNIT (LENGTH_MEASURE( 1.000000000000000082E-05 ), #201, 'distance_accuracy_value', 'NONE');
#176 = ADVANCED_FACE ( 'NONE', ( #81 ), #248, .T. ) ;
#177 = DIRECTION ( 'NONE',  ( 0.000000000000000000, 0.000000000000000000, 1.000000000000000000 ) ) ;
#178 = DIRECTION ( 'NONE',  ( 1.000000000000000000, 0.000000000000000000, -0.000000000000000000 ) ) ;
#179 = EDGE_LOOP ( 'NONE', ( #219, #42, #221, #83 ) ) ;
#180 = ORIENTED_EDGE ( 'NONE', *, *, #137, .T. ) ;
#181 = EDGE_LOOP ( 'NONE', ( #65, #238 ) ) ;
#182 =( NAMED_UNIT ( * ) PLANE_ANGLE_UNIT ( ) SI_UNIT ( $, .RADIAN. ) );
#183 = ORIENTED_EDGE ( 'NONE', *, *, #84, .F. ) ;
#184 = DIRECTION ( 'NONE',  ( -0.000000000000000000, -0.000000000000000000, -1.000000000000000000 ) ) ;
#185 = CALENDAR_DATE ( 2022, 7, 7 ) ;
#186 = PERSON_AND_ORGANIZATION ( #169, #54 ) ;
#187 = PERSON_AND_ORGANIZATION_ROLE ( 'design_supplier' ) ;
#188 = APPROVAL_DATE_TIME ( #147, #99 ) ;
#189 = APPROVAL_ROLE ( '' ) ;
#190 = LINE ( 'NONE', #135, #142 ) ;
#191 = CIRCLE ( 'NONE', #75, 11.00000000000000000 ) ;
#192 = DIRECTION ( 'NONE',  ( 0.000000000000000000, 0.000000000000000000, 1.000000000000000000 ) ) ;
#193 = DIRECTION ( 'NONE',  ( -0.000000000000000000, -0.000000000000000000, -1.000000000000000000 ) ) ;
#194 = CIRCLE ( 'NONE', #96, 7.500000000000000000 ) ;
#195 = FACE_OUTER_BOUND ( 'NONE', #237, .T. ) ;
#196 = VERTEX_POINT ( 'NONE', #124 ) ;
#197 = PLANE ( 'NONE',  #41 ) ;
#198 = ORIENTED_EDGE ( 'NONE', *, *, #236, .T. ) ;
#199 = EDGE_CURVE ( 'NONE', #162, #196, #92, .T. ) ;
#200 = CARTESIAN_POINT ( 'NONE',  ( 7.500000000000000000, 9.184850993605147944E-16, 132.0000000000000000 ) ) ;
#201 =( LENGTH_UNIT ( ) NAMED_UNIT ( * ) SI_UNIT ( .MILLI., .METRE. ) );
#202 = VECTOR ( 'NONE', #21, 1000.000000000000000 ) ;
#203 = CARTESIAN_POINT ( 'NONE',  ( 0.000000000000000000, 0.000000000000000000, 7.000000000000000000 ) ) ;
#204 = APPROVAL_STATUS ( 'not_yet_approved' ) ;
#205 =( NAMED_UNIT ( * ) SI_UNIT ( $, .STERADIAN. ) SOLID_ANGLE_UNIT ( ) );
#206 = LOCAL_TIME ( 19, 11, 17.00000000000000000, #11 ) ;
#207 = PERSON_AND_ORGANIZATION ( #169, #54 ) ;
#208 = CARTESIAN_POINT ( 'NONE',  ( 0.000000000000000000, 0.000000000000000000, 7.000000000000000000 ) ) ;
#209 = PRODUCT_DEFINITION_SHAPE ( 'NONE', 'NONE',  #254 ) ;
#210 = SHAPE_DEFINITION_REPRESENTATION ( #209, #53 ) ;
#211 = CC_DESIGN_PERSON_AND_ORGANIZATION_ASSIGNMENT ( #130, #187, ( #9 ) ) ;
#212 = DIRECTION ( 'NONE',  ( -0.000000000000000000, -0.000000000000000000, -1.000000000000000000 ) ) ;
#213 = PLANE ( 'NONE',  #167 ) ;
#214 = CC_DESIGN_SECURITY_CLASSIFICATION ( #250, ( #9 ) ) ;
#215 = CARTESIAN_POINT ( 'NONE',  ( 11.00000000000000000, 1.347111479062088405E-15, 0.000000000000000000 ) ) ;
#216 = DIRECTION ( 'NONE',  ( -1.000000000000000000, 0.000000000000000000, 0.000000000000000000 ) ) ;
#217 = EDGE_LOOP ( 'NONE', ( #85, #23, #198, #107 ) ) ;
#218 = AXIS2_PLACEMENT_3D ( 'NONE', #233, #133, #79 ) ;
#219 = ORIENTED_EDGE ( 'NONE', *, *, #118, .F. ) ;
#220 = DIRECTION ( 'NONE',  ( 1.000000000000000000, 0.000000000000000000, 0.000000000000000000 ) ) ;
#221 = ORIENTED_EDGE ( 'NONE', *, *, #109, .T. ) ;
#222 = MANIFOLD_SOLID_BREP ( 'Pøidat vysunutím3', #34 ) ;
#223 = CC_DESIGN_DATE_AND_TIME_ASSIGNMENT ( #239, #64, ( #254 ) ) ;
#224 = AXIS2_PLACEMENT_3D ( 'NONE', #154, #212, #77 ) ;
#225 = LINE ( 'NONE', #241, #97 ) ;
#226 = SECURITY_CLASSIFICATION_LEVEL ( 'unclassified' ) ;
#227 = AXIS2_PLACEMENT_3D ( 'NONE', #203, #184, #164 ) ;
#228 = CYLINDRICAL_SURFACE ( 'NONE', #16, 7.500000000000000000 ) ;
#229 = EDGE_CURVE ( 'NONE', #161, #24, #225, .T. ) ;
#230 = CARTESIAN_POINT ( 'NONE',  ( -7.500000000000000000, 0.000000000000000000, 132.0000000000000000 ) ) ;
#231 = PLANE ( 'NONE',  #218 ) ;
#232 = DESIGN_CONTEXT ( 'detailed design', #131, 'design' ) ;
#233 = CARTESIAN_POINT ( 'NONE',  ( 0.000000000000000000, 0.000000000000000000, 132.0000000000000000 ) ) ;
#234 = ORIENTED_EDGE ( 'NONE', *, *, #229, .T. ) ;
#235 = LOCAL_TIME ( 19, 11, 17.00000000000000000, #5 ) ;
#236 = EDGE_CURVE ( 'NONE', #6, #24, #103, .T. ) ;
#237 = EDGE_LOOP ( 'NONE', ( #240, #120 ) ) ;
#238 = ORIENTED_EDGE ( 'NONE', *, *, #236, .F. ) ;
#239 = DATE_AND_TIME ( #86, #235 ) ;
#240 = ORIENTED_EDGE ( 'NONE', *, *, #199, .T. ) ;
#241 = CARTESIAN_POINT ( 'NONE',  ( -7.500000000000000000, 0.000000000000000000, 132.0000000000000000 ) ) ;
#242 = CIRCLE ( 'NONE', #156, 7.500000000000000000 ) ;
#243 = DIRECTION ( 'NONE',  ( 1.000000000000000000, 0.000000000000000000, 0.000000000000000000 ) ) ;
#244 = PERSON_AND_ORGANIZATION_ROLE ( 'creator' ) ;
#245 = COORDINATED_UNIVERSAL_TIME_OFFSET ( 1, 0, .AHEAD. ) ;
#246 = PRODUCT ( '6ce9', '6ce9', '', ( #67 ) ) ;
#247 = APPROVAL_DATE_TIME ( #148, #89 ) ;
#248 = CYLINDRICAL_SURFACE ( 'NONE', #227, 11.00000000000000000 ) ;
#249 = EDGE_CURVE ( 'NONE', #125, #161, #242, .T. ) ;
#250 = SECURITY_CLASSIFICATION ( '', '', #226 ) ;
#251 = CARTESIAN_POINT ( 'NONE',  ( -11.00000000000000000, 0.000000000000000000, 7.000000000000000000 ) ) ;
#252 = DIRECTION ( 'NONE',  ( 0.000000000000000000, 0.000000000000000000, 1.000000000000000000 ) ) ;
#253 = FACE_BOUND ( 'NONE', #181, .T. ) ;
#254 = PRODUCT_DEFINITION ( 'NEZNÁMÝ', '', #9, #232 ) ;
#255 = DIRECTION ( 'NONE',  ( 1.000000000000000000, 0.000000000000000000, 0.000000000000000000 ) ) ;
ENDSEC;
END-ISO-10303-21;
