ISO-10303-21;
HEADER;
FILE_DESCRIPTION (( 'STEP AP203' ),
    '1' );
FILE_NAME ('29dd.STEP',
    '2023-02-13T10:41:43',
    ( '' ),
    ( '' ),
    'SwSTEP 2.0',
    'SolidWorks 2019',
    '' );
FILE_SCHEMA (( 'CONFIG_CONTROL_DESIGN' ));
ENDSEC;

DATA;
#1 = LINE ( 'NONE', #220, #3 ) ;
#2 = LOCAL_TIME ( 11, 41, 43.00000000000000000, #214 ) ;
#3 = VECTOR ( 'NONE', #24, 1000.000000000000000 ) ;
#4 = AXIS2_PLACEMENT_3D ( 'NONE', #5, #238, #51 ) ;
#5 = CARTESIAN_POINT ( 'NONE',  ( 0.000000000000000000, 0.000000000000000000, 160.0000000000000000 ) ) ;
#6 = CC_DESIGN_DATE_AND_TIME_ASSIGNMENT ( #161, #22, ( #210 ) ) ;
#7 = ORIENTED_EDGE ( 'NONE', *, *, #233, .T. ) ;
#8 = CARTESIAN_POINT ( 'NONE',  ( 11.00000000000000000, 1.347111479062088405E-15, 7.000000000000000000 ) ) ;
#9 = ORIENTED_EDGE ( 'NONE', *, *, #23, .F. ) ;
#10 = EDGE_LOOP ( 'NONE', ( #148, #166, #240, #189 ) ) ;
#11 = MECHANICAL_CONTEXT ( 'NONE', #55, 'mechanical' ) ;
#12 =( GEOMETRIC_REPRESENTATION_CONTEXT ( 3 ) GLOBAL_UNCERTAINTY_ASSIGNED_CONTEXT ( ( #118 ) ) GLOBAL_UNIT_ASSIGNED_CONTEXT ( ( #208, #229, #205 ) ) REPRESENTATION_CONTEXT ( 'NONE', 'WORKASPACE' ) );
#13 = ORIENTED_EDGE ( 'NONE', *, *, #233, .F. ) ;
#14 = PERSON_AND_ORGANIZATION_ROLE ( 'design_owner' ) ;
#15 = DIRECTION ( 'NONE',  ( -1.000000000000000000, 0.000000000000000000, 0.000000000000000000 ) ) ;
#16 = AXIS2_PLACEMENT_3D ( 'NONE', #157, #160, #155 ) ;
#17 = CARTESIAN_POINT ( 'NONE',  ( -11.00000000000000000, 0.000000000000000000, 7.000000000000000000 ) ) ;
#18 = PERSON_AND_ORGANIZATION_ROLE ( 'creator' ) ;
#19 = LINE ( 'NONE', #254, #143 ) ;
#20 = DATE_AND_TIME ( #68, #2 ) ;
#21 = LOCAL_TIME ( 11, 41, 43.00000000000000000, #60 ) ;
#22 = DATE_TIME_ROLE ( 'creation_date' ) ;
#23 = EDGE_CURVE ( 'NONE', #95, #134, #26, .T. ) ;
#24 = DIRECTION ( 'NONE',  ( -0.000000000000000000, -0.000000000000000000, -1.000000000000000000 ) ) ;
#25 = PERSON_AND_ORGANIZATION ( #75, #221 ) ;
#26 = CIRCLE ( 'NONE', #53, 11.00000000000000000 ) ;
#27 = ORIENTED_EDGE ( 'NONE', *, *, #78, .T. ) ;
#28 = AXIS2_PLACEMENT_3D ( 'NONE', #226, #65, #101 ) ;
#29 = APPROVAL_PERSON_ORGANIZATION ( #141, #236, #89 ) ;
#30 = EDGE_LOOP ( 'NONE', ( #99, #186, #165, #225 ) ) ;
#31 = VERTEX_POINT ( 'NONE', #180 ) ;
#32 = CARTESIAN_POINT ( 'NONE',  ( 0.000000000000000000, 0.000000000000000000, 7.000000000000000000 ) ) ;
#33 = CIRCLE ( 'NONE', #16, 11.00000000000000000 ) ;
#34 = EDGE_CURVE ( 'NONE', #239, #246, #158, .T. ) ;
#35 = DIRECTION ( 'NONE',  ( 0.000000000000000000, 0.000000000000000000, 1.000000000000000000 ) ) ;
#36 = CARTESIAN_POINT ( 'NONE',  ( -11.00000000000000000, 0.000000000000000000, 7.000000000000000000 ) ) ;
#37 = CC_DESIGN_APPROVAL ( #90, ( #210 ) ) ;
#38 = DIRECTION ( 'NONE',  ( 1.000000000000000000, 0.000000000000000000, 0.000000000000000000 ) ) ;
#39 = FACE_OUTER_BOUND ( 'NONE', #149, .T. ) ;
#40 = CARTESIAN_POINT ( 'NONE',  ( 0.000000000000000000, 0.000000000000000000, 7.000000000000000000 ) ) ;
#41 = CIRCLE ( 'NONE', #4, 7.250000000000000000 ) ;
#42 = FACE_OUTER_BOUND ( 'NONE', #30, .T. ) ;
#43 = FACE_OUTER_BOUND ( 'NONE', #151, .T. ) ;
#44 = PERSON_AND_ORGANIZATION ( #75, #221 ) ;
#45 = ADVANCED_FACE ( 'NONE', ( #202 ), #224, .T. ) ;
#46 = CALENDAR_DATE ( 2023, 13, 2 ) ;
#47 = PERSON_AND_ORGANIZATION ( #75, #221 ) ;
#48 = EDGE_CURVE ( 'NONE', #246, #59, #172, .T. ) ;
#49 = CARTESIAN_POINT ( 'NONE',  ( 0.000000000000000000, 0.000000000000000000, 160.0000000000000000 ) ) ;
#50 = AXIS2_PLACEMENT_3D ( 'NONE', #129, #245, #209 ) ;
#51 = DIRECTION ( 'NONE',  ( 1.000000000000000000, 0.000000000000000000, 0.000000000000000000 ) ) ;
#52 = EDGE_LOOP ( 'NONE', ( #93, #131 ) ) ;
#53 = AXIS2_PLACEMENT_3D ( 'NONE', #79, #35, #38 ) ;
#54 = ORIENTED_EDGE ( 'NONE', *, *, #78, .F. ) ;
#55 = APPLICATION_CONTEXT ( 'configuration controlled 3d designs of mechanical parts and assemblies' ) ;
#56 = ADVANCED_FACE ( 'NONE', ( #42 ), #119, .T. ) ;
#57 = PRODUCT_DEFINITION_FORMATION_WITH_SPECIFIED_SOURCE ( 'LIBOVOLNÝ', '', #110, .NOT_KNOWN. ) ;
#58 = ORIENTED_EDGE ( 'NONE', *, *, #200, .F. ) ;
#59 = VERTEX_POINT ( 'NONE', #69 ) ;
#60 = COORDINATED_UNIVERSAL_TIME_OFFSET ( 1, 0, .AHEAD. ) ;
#61 = DIRECTION ( 'NONE',  ( -0.000000000000000000, -0.000000000000000000, -1.000000000000000000 ) ) ;
#62 = AXIS2_PLACEMENT_3D ( 'NONE', #211, #252, #231 ) ;
#63 = ORIENTED_EDGE ( 'NONE', *, *, #107, .F. ) ;
#64 = APPROVAL_PERSON_ORGANIZATION ( #103, #90, #159 ) ;
#65 = DIRECTION ( 'NONE',  ( 0.000000000000000000, 0.000000000000000000, 1.000000000000000000 ) ) ;
#66 = CYLINDRICAL_SURFACE ( 'NONE', #117, 7.250000000000000000 ) ;
#67 = CIRCLE ( 'NONE', #144, 7.250000000000000000 ) ;
#68 = CALENDAR_DATE ( 2023, 13, 2 ) ;
#69 = CARTESIAN_POINT ( 'NONE',  ( 7.250000000000000000, 8.878689293818310074E-16, 7.000000000000000000 ) ) ;
#70 = APPROVAL_DATE_TIME ( #20, #90 ) ;
#71 = VECTOR ( 'NONE', #227, 1000.000000000000000 ) ;
#72 = CC_DESIGN_PERSON_AND_ORGANIZATION_ASSIGNMENT ( #47, #18, ( #57 ) ) ;
#73 = VERTEX_POINT ( 'NONE', #17 ) ;
#74 = ORIENTED_EDGE ( 'NONE', *, *, #23, .T. ) ;
#75 = PERSON ( 'NEURÈENÝ', 'NEURÈENÝ', 'NEURÈENÝ', ('NEURÈENÝ'), ('NEURÈENÝ'), ('NEURÈENÝ') ) ;
#76 = DIRECTION ( 'NONE',  ( 0.000000000000000000, 0.000000000000000000, 1.000000000000000000 ) ) ;
#77 = DIRECTION ( 'NONE',  ( 0.000000000000000000, 0.000000000000000000, 1.000000000000000000 ) ) ;
#78 = EDGE_CURVE ( 'NONE', #134, #95, #196, .T. ) ;
#79 = CARTESIAN_POINT ( 'NONE',  ( 0.000000000000000000, 0.000000000000000000, 0.000000000000000000 ) ) ;
#80 = CARTESIAN_POINT ( 'NONE',  ( 0.000000000000000000, 0.000000000000000000, 0.000000000000000000 ) ) ;
#81 = PERSON_AND_ORGANIZATION ( #75, #221 ) ;
#82 = PLANE ( 'NONE',  #125 ) ;
#83 = CARTESIAN_POINT ( 'NONE',  ( 7.250000000000000000, 8.878689293818310074E-16, 160.0000000000000000 ) ) ;
#84 = DIRECTION ( 'NONE',  ( -0.000000000000000000, -0.000000000000000000, -1.000000000000000000 ) ) ;
#85 = APPROVAL_STATUS ( 'not_yet_approved' ) ;
#86 = PLANE ( 'NONE',  #194 ) ;
#87 = LOCAL_TIME ( 11, 41, 43.00000000000000000, #122 ) ;
#88 = DIRECTION ( 'NONE',  ( -0.000000000000000000, -0.000000000000000000, -1.000000000000000000 ) ) ;
#89 = APPROVAL_ROLE ( '' ) ;
#90 = APPROVAL ( #85, 'NEURÈENÝ' ) ;
#91 = ORIENTED_EDGE ( 'NONE', *, *, #232, .F. ) ;
#92 = CC_DESIGN_APPROVAL ( #191, ( #147 ) ) ;
#93 = ORIENTED_EDGE ( 'NONE', *, *, #200, .T. ) ;
#94 = EDGE_LOOP ( 'NONE', ( #63, #58, #7, #74 ) ) ;
#95 = VERTEX_POINT ( 'NONE', #104 ) ;
#96 = APPROVAL_ROLE ( '' ) ;
#97 = CIRCLE ( 'NONE', #199, 7.250000000000000000 ) ;
#98 = CYLINDRICAL_SURFACE ( 'NONE', #213, 11.00000000000000000 ) ;
#99 = ORIENTED_EDGE ( 'NONE', *, *, #48, .F. ) ;
#100 = APPROVAL_DATE_TIME ( #112, #191 ) ;
#101 = DIRECTION ( 'NONE',  ( 1.000000000000000000, 0.000000000000000000, -0.000000000000000000 ) ) ;
#102 = SHAPE_DEFINITION_REPRESENTATION ( #235, #145 ) ;
#103 = PERSON_AND_ORGANIZATION ( #75, #221 ) ;
#104 = CARTESIAN_POINT ( 'NONE',  ( -11.00000000000000000, 0.000000000000000000, 0.000000000000000000 ) ) ;
#105 = CARTESIAN_POINT ( 'NONE',  ( 0.000000000000000000, 0.000000000000000000, 160.0000000000000000 ) ) ;
#106 = DIRECTION ( 'NONE',  ( 1.000000000000000000, 0.000000000000000000, -0.000000000000000000 ) ) ;
#107 = EDGE_CURVE ( 'NONE', #169, #134, #19, .T. ) ;
#108 = MANIFOLD_SOLID_BREP ( 'Pøidat vysunutím3', #124 ) ;
#109 = EDGE_CURVE ( 'NONE', #169, #73, #33, .T. ) ;
#110 = PRODUCT ( '29dd', '29dd', '', ( #11 ) ) ;
#111 = CC_DESIGN_PERSON_AND_ORGANIZATION_ASSIGNMENT ( #116, #14, ( #110 ) ) ;
#112 = DATE_AND_TIME ( #183, #198 ) ;
#113 = DIRECTION ( 'NONE',  ( 1.000000000000000000, 0.000000000000000000, 0.000000000000000000 ) ) ;
#114 = DATE_TIME_ROLE ( 'classification_date' ) ;
#115 = CARTESIAN_POINT ( 'NONE',  ( 0.000000000000000000, 0.000000000000000000, 7.000000000000000000 ) ) ;
#116 = PERSON_AND_ORGANIZATION ( #75, #221 ) ;
#117 = AXIS2_PLACEMENT_3D ( 'NONE', #49, #234, #140 ) ;
#118 = UNCERTAINTY_MEASURE_WITH_UNIT (LENGTH_MEASURE( 1.000000000000000082E-05 ), #208, 'distance_accuracy_value', 'NONE');
#119 = CYLINDRICAL_SURFACE ( 'NONE', #146, 7.250000000000000000 ) ;
#120 = PERSON_AND_ORGANIZATION_ROLE ( 'creator' ) ;
#121 = ADVANCED_FACE ( 'NONE', ( #136 ), #66, .T. ) ;
#122 = COORDINATED_UNIVERSAL_TIME_OFFSET ( 1, 0, .AHEAD. ) ;
#123 = DATE_AND_TIME ( #46, #87 ) ;
#124 = CLOSED_SHELL ( 'NONE', ( #121, #45, #223, #251, #217, #56, #127 ) ) ;
#125 = AXIS2_PLACEMENT_3D ( 'NONE', #181, #132, #170 ) ;
#126 = APPROVAL_PERSON_ORGANIZATION ( #188, #191, #96 ) ;
#127 = ADVANCED_FACE ( 'NONE', ( #43 ), #86, .T. ) ;
#128 = CARTESIAN_POINT ( 'NONE',  ( 0.000000000000000000, 0.000000000000000000, 7.000000000000000000 ) ) ;
#129 = CARTESIAN_POINT ( 'NONE',  ( 0.000000000000000000, 0.000000000000000000, 160.0000000000000000 ) ) ;
#130 = EDGE_LOOP ( 'NONE', ( #163, #91 ) ) ;
#131 = ORIENTED_EDGE ( 'NONE', *, *, #109, .T. ) ;
#132 = DIRECTION ( 'NONE',  ( 0.000000000000000000, 0.000000000000000000, 1.000000000000000000 ) ) ;
#133 = EDGE_CURVE ( 'NONE', #239, #31, #1, .T. ) ;
#134 = VERTEX_POINT ( 'NONE', #178 ) ;
#135 = FACE_OUTER_BOUND ( 'NONE', #52, .T. ) ;
#136 = FACE_OUTER_BOUND ( 'NONE', #10, .T. ) ;
#137 = PERSON_AND_ORGANIZATION_ROLE ( 'design_supplier' ) ;
#138 = CARTESIAN_POINT ( 'NONE',  ( 0.000000000000000000, 0.000000000000000000, 0.000000000000000000 ) ) ;
#139 = CALENDAR_DATE ( 2023, 13, 2 ) ;
#140 = DIRECTION ( 'NONE',  ( -1.000000000000000000, 0.000000000000000000, 0.000000000000000000 ) ) ;
#141 = PERSON_AND_ORGANIZATION ( #75, #221 ) ;
#142 = DIRECTION ( 'NONE',  ( 1.000000000000000000, 0.000000000000000000, 0.000000000000000000 ) ) ;
#143 = VECTOR ( 'NONE', #84, 1000.000000000000000 ) ;
#144 = AXIS2_PLACEMENT_3D ( 'NONE', #115, #168, #253 ) ;
#145 = ADVANCED_BREP_SHAPE_REPRESENTATION ( '29dd', ( #108, #185 ), #12 ) ;
#146 = AXIS2_PLACEMENT_3D ( 'NONE', #193, #249, #212 ) ;
#147 = SECURITY_CLASSIFICATION ( '', '', #241 ) ;
#148 = ORIENTED_EDGE ( 'NONE', *, *, #177, .F. ) ;
#149 = EDGE_LOOP ( 'NONE', ( #9, #54 ) ) ;
#150 = VECTOR ( 'NONE', #88, 1000.000000000000000 ) ;
#151 = EDGE_LOOP ( 'NONE', ( #222, #154 ) ) ;
#152 = DIRECTION ( 'NONE',  ( 1.000000000000000000, 0.000000000000000000, 0.000000000000000000 ) ) ;
#153 = DIRECTION ( 'NONE',  ( 1.000000000000000000, 0.000000000000000000, 0.000000000000000000 ) ) ;
#154 = ORIENTED_EDGE ( 'NONE', *, *, #177, .T. ) ;
#155 = DIRECTION ( 'NONE',  ( 1.000000000000000000, 0.000000000000000000, 0.000000000000000000 ) ) ;
#156 = PLANE ( 'NONE',  #28 ) ;
#157 = CARTESIAN_POINT ( 'NONE',  ( 0.000000000000000000, 0.000000000000000000, 7.000000000000000000 ) ) ;
#158 = CIRCLE ( 'NONE', #50, 7.250000000000000000 ) ;
#159 = APPROVAL_ROLE ( '' ) ;
#160 = DIRECTION ( 'NONE',  ( 0.000000000000000000, 0.000000000000000000, 1.000000000000000000 ) ) ;
#161 = DATE_AND_TIME ( #139, #176 ) ;
#162 = CC_DESIGN_PERSON_AND_ORGANIZATION_ASSIGNMENT ( #81, #164, ( #147 ) ) ;
#163 = ORIENTED_EDGE ( 'NONE', *, *, #203, .F. ) ;
#164 = PERSON_AND_ORGANIZATION_ROLE ( 'classification_officer' ) ;
#165 = ORIENTED_EDGE ( 'NONE', *, *, #133, .T. ) ;
#166 = ORIENTED_EDGE ( 'NONE', *, *, #48, .T. ) ;
#167 = CALENDAR_DATE ( 2023, 13, 2 ) ;
#168 = DIRECTION ( 'NONE',  ( 0.000000000000000000, 0.000000000000000000, 1.000000000000000000 ) ) ;
#169 = VERTEX_POINT ( 'NONE', #8 ) ;
#170 = DIRECTION ( 'NONE',  ( 1.000000000000000000, 0.000000000000000000, -0.000000000000000000 ) ) ;
#171 = APPLICATION_CONTEXT ( 'configuration controlled 3d designs of mechanical parts and assemblies' ) ;
#172 = LINE ( 'NONE', #174, #150 ) ;
#173 = COORDINATED_UNIVERSAL_TIME_OFFSET ( 1, 0, .AHEAD. ) ;
#174 = CARTESIAN_POINT ( 'NONE',  ( 7.250000000000000000, 8.878689293818310074E-16, 160.0000000000000000 ) ) ;
#175 = DIRECTION ( 'NONE',  ( 0.000000000000000000, 0.000000000000000000, 1.000000000000000000 ) ) ;
#176 = LOCAL_TIME ( 11, 41, 43.00000000000000000, #218 ) ;
#177 = EDGE_CURVE ( 'NONE', #246, #239, #41, .T. ) ;
#178 = CARTESIAN_POINT ( 'NONE',  ( 11.00000000000000000, 1.347111479062088405E-15, 0.000000000000000000 ) ) ;
#179 = AXIS2_PLACEMENT_3D ( 'NONE', #80, #215, #142 ) ;
#180 = CARTESIAN_POINT ( 'NONE',  ( -7.250000000000000000, 0.000000000000000000, 7.000000000000000000 ) ) ;
#181 = CARTESIAN_POINT ( 'NONE',  ( 0.000000000000000000, 0.000000000000000000, 7.000000000000000000 ) ) ;
#182 = PRODUCT_RELATED_PRODUCT_CATEGORY ( 'detail', '', ( #110 ) ) ;
#183 = CALENDAR_DATE ( 2023, 13, 2 ) ;
#184 = APPLICATION_PROTOCOL_DEFINITION ( 'international standard', 'config_control_design', 1994, #55 ) ;
#185 = AXIS2_PLACEMENT_3D ( 'NONE', #138, #77, #153 ) ;
#186 = ORIENTED_EDGE ( 'NONE', *, *, #34, .F. ) ;
#187 = CC_DESIGN_SECURITY_CLASSIFICATION ( #147, ( #57 ) ) ;
#188 = PERSON_AND_ORGANIZATION ( #75, #221 ) ;
#189 = ORIENTED_EDGE ( 'NONE', *, *, #133, .F. ) ;
#190 = APPROVAL_STATUS ( 'not_yet_approved' ) ;
#191 = APPROVAL ( #190, 'NEURÈENÝ' ) ;
#192 = DESIGN_CONTEXT ( 'detailed design', #171, 'design' ) ;
#193 = CARTESIAN_POINT ( 'NONE',  ( 0.000000000000000000, 0.000000000000000000, 160.0000000000000000 ) ) ;
#194 = AXIS2_PLACEMENT_3D ( 'NONE', #105, #175, #106 ) ;
#195 = APPLICATION_PROTOCOL_DEFINITION ( 'international standard', 'config_control_design', 1994, #171 ) ;
#196 = CIRCLE ( 'NONE', #179, 11.00000000000000000 ) ;
#197 = APPROVAL_DATE_TIME ( #123, #236 ) ;
#198 = LOCAL_TIME ( 11, 41, 43.00000000000000000, #173 ) ;
#199 = AXIS2_PLACEMENT_3D ( 'NONE', #32, #76, #113 ) ;
#200 = EDGE_CURVE ( 'NONE', #73, #169, #237, .T. ) ;
#201 = DIRECTION ( 'NONE',  ( 0.000000000000000000, 0.000000000000000000, 1.000000000000000000 ) ) ;
#202 = FACE_OUTER_BOUND ( 'NONE', #228, .T. ) ;
#203 = EDGE_CURVE ( 'NONE', #31, #59, #67, .T. ) ;
#204 = CC_DESIGN_DATE_AND_TIME_ASSIGNMENT ( #207, #114, ( #147 ) ) ;
#205 =( NAMED_UNIT ( * ) SI_UNIT ( $, .STERADIAN. ) SOLID_ANGLE_UNIT ( ) );
#206 = ORIENTED_EDGE ( 'NONE', *, *, #109, .F. ) ;
#207 = DATE_AND_TIME ( #167, #21 ) ;
#208 =( LENGTH_UNIT ( ) NAMED_UNIT ( * ) SI_UNIT ( .MILLI., .METRE. ) );
#209 = DIRECTION ( 'NONE',  ( 1.000000000000000000, 0.000000000000000000, 0.000000000000000000 ) ) ;
#210 = PRODUCT_DEFINITION ( 'NEZNÁMÝ', '', #57, #192 ) ;
#211 = CARTESIAN_POINT ( 'NONE',  ( 0.000000000000000000, 0.000000000000000000, 7.000000000000000000 ) ) ;
#212 = DIRECTION ( 'NONE',  ( -1.000000000000000000, 0.000000000000000000, 0.000000000000000000 ) ) ;
#213 = AXIS2_PLACEMENT_3D ( 'NONE', #40, #61, #15 ) ;
#214 = COORDINATED_UNIVERSAL_TIME_OFFSET ( 1, 0, .AHEAD. ) ;
#215 = DIRECTION ( 'NONE',  ( 0.000000000000000000, 0.000000000000000000, 1.000000000000000000 ) ) ;
#216 = APPROVAL_STATUS ( 'not_yet_approved' ) ;
#217 = ADVANCED_FACE ( 'NONE', ( #39 ), #156, .F. ) ;
#218 = COORDINATED_UNIVERSAL_TIME_OFFSET ( 1, 0, .AHEAD. ) ;
#219 = CC_DESIGN_APPROVAL ( #236, ( #57 ) ) ;
#220 = CARTESIAN_POINT ( 'NONE',  ( -7.250000000000000000, 0.000000000000000000, 160.0000000000000000 ) ) ;
#221 = ORGANIZATION ( 'NEURÈENÝ', 'NEURÈENÝ', '' ) ;
#222 = ORIENTED_EDGE ( 'NONE', *, *, #34, .T. ) ;
#223 = ADVANCED_FACE ( 'NONE', ( #230 ), #98, .T. ) ;
#224 = CYLINDRICAL_SURFACE ( 'NONE', #62, 11.00000000000000000 ) ;
#225 = ORIENTED_EDGE ( 'NONE', *, *, #203, .T. ) ;
#226 = CARTESIAN_POINT ( 'NONE',  ( 0.000000000000000000, 0.000000000000000000, 0.000000000000000000 ) ) ;
#227 = DIRECTION ( 'NONE',  ( -0.000000000000000000, -0.000000000000000000, -1.000000000000000000 ) ) ;
#228 = EDGE_LOOP ( 'NONE', ( #206, #242, #27, #13 ) ) ;
#229 =( NAMED_UNIT ( * ) PLANE_ANGLE_UNIT ( ) SI_UNIT ( $, .RADIAN. ) );
#230 = FACE_OUTER_BOUND ( 'NONE', #94, .T. ) ;
#231 = DIRECTION ( 'NONE',  ( -1.000000000000000000, 0.000000000000000000, 0.000000000000000000 ) ) ;
#232 = EDGE_CURVE ( 'NONE', #59, #31, #97, .T. ) ;
#233 = EDGE_CURVE ( 'NONE', #73, #95, #243, .T. ) ;
#234 = DIRECTION ( 'NONE',  ( -0.000000000000000000, -0.000000000000000000, -1.000000000000000000 ) ) ;
#235 = PRODUCT_DEFINITION_SHAPE ( 'NONE', 'NONE',  #210 ) ;
#236 = APPROVAL ( #216, 'NEURÈENÝ' ) ;
#237 = CIRCLE ( 'NONE', #244, 11.00000000000000000 ) ;
#238 = DIRECTION ( 'NONE',  ( 0.000000000000000000, 0.000000000000000000, 1.000000000000000000 ) ) ;
#239 = VERTEX_POINT ( 'NONE', #247 ) ;
#240 = ORIENTED_EDGE ( 'NONE', *, *, #232, .T. ) ;
#241 = SECURITY_CLASSIFICATION_LEVEL ( 'unclassified' ) ;
#242 = ORIENTED_EDGE ( 'NONE', *, *, #107, .T. ) ;
#243 = LINE ( 'NONE', #36, #71 ) ;
#244 = AXIS2_PLACEMENT_3D ( 'NONE', #128, #201, #152 ) ;
#245 = DIRECTION ( 'NONE',  ( 0.000000000000000000, 0.000000000000000000, 1.000000000000000000 ) ) ;
#246 = VERTEX_POINT ( 'NONE', #83 ) ;
#247 = CARTESIAN_POINT ( 'NONE',  ( -7.250000000000000000, 0.000000000000000000, 160.0000000000000000 ) ) ;
#248 = CC_DESIGN_PERSON_AND_ORGANIZATION_ASSIGNMENT ( #44, #120, ( #210 ) ) ;
#249 = DIRECTION ( 'NONE',  ( -0.000000000000000000, -0.000000000000000000, -1.000000000000000000 ) ) ;
#250 = FACE_BOUND ( 'NONE', #130, .T. ) ;
#251 = ADVANCED_FACE ( 'NONE', ( #250, #135 ), #82, .T. ) ;
#252 = DIRECTION ( 'NONE',  ( -0.000000000000000000, -0.000000000000000000, -1.000000000000000000 ) ) ;
#253 = DIRECTION ( 'NONE',  ( 1.000000000000000000, 0.000000000000000000, 0.000000000000000000 ) ) ;
#254 = CARTESIAN_POINT ( 'NONE',  ( 11.00000000000000000, 1.347111479062088405E-15, 7.000000000000000000 ) ) ;
#255 = CC_DESIGN_PERSON_AND_ORGANIZATION_ASSIGNMENT ( #25, #137, ( #57 ) ) ;
ENDSEC;
END-ISO-10303-21;
