ISO-10303-21;
HEADER;
FILE_DESCRIPTION (( 'STEP AP203' ),
    '1' );
FILE_NAME ('4d4c.STEP',
    '2022-07-07T17:49:58',
    ( '' ),
    ( '' ),
    'SwSTEP 2.0',
    'SolidWorks 2019',
    '' );
FILE_SCHEMA (( 'CONFIG_CONTROL_DESIGN' ));
ENDSEC;

DATA;
#1 = APPROVAL_STATUS ( 'not_yet_approved' ) ;
#2 = APPROVAL ( #132, 'NEURÈENÝ' ) ;
#3 = ORIENTED_EDGE ( 'NONE', *, *, #116, .T. ) ;
#4 = FACE_OUTER_BOUND ( 'NONE', #248, .T. ) ;
#5 = PRODUCT_DEFINITION_FORMATION_WITH_SPECIFIED_SOURCE ( 'LIBOVOLNÝ', '', #24, .NOT_KNOWN. ) ;
#6 = CARTESIAN_POINT ( 'NONE',  ( -2.100000000000000089, 0.000000000000000000, 318.0000000000000000 ) ) ;
#7 = ORIENTED_EDGE ( 'NONE', *, *, #77, .T. ) ;
#8 = CARTESIAN_POINT ( 'NONE',  ( 4.000000000000000000, 4.898587196589412829E-16, 3.000000000000000000 ) ) ;
#9 = EDGE_LOOP ( 'NONE', ( #87, #14, #243, #59 ) ) ;
#10 = DIRECTION ( 'NONE',  ( 1.000000000000000000, 0.000000000000000000, 0.000000000000000000 ) ) ;
#11 = ORIENTED_EDGE ( 'NONE', *, *, #52, .F. ) ;
#12 = VERTEX_POINT ( 'NONE', #223 ) ;
#13 = PERSON_AND_ORGANIZATION_ROLE ( 'creator' ) ;
#14 = ORIENTED_EDGE ( 'NONE', *, *, #39, .T. ) ;
#15 = CC_DESIGN_APPROVAL ( #154, ( #111 ) ) ;
#16 = DATE_AND_TIME ( #131, #21 ) ;
#17 = ADVANCED_FACE ( 'NONE', ( #91 ), #180, .T. ) ;
#18 = CIRCLE ( 'NONE', #142, 2.100000000000000089 ) ;
#19 = CC_DESIGN_PERSON_AND_ORGANIZATION_ASSIGNMENT ( #253, #210, ( #24 ) ) ;
#20 = PERSON ( 'NEURÈENÝ', 'NEURÈENÝ', 'NEURÈENÝ', ('NEURÈENÝ'), ('NEURÈENÝ'), ('NEURÈENÝ') ) ;
#21 = LOCAL_TIME ( 19, 49, 58.00000000000000000, #191 ) ;
#22 = EDGE_LOOP ( 'NONE', ( #220, #7 ) ) ;
#23 = CARTESIAN_POINT ( 'NONE',  ( 0.000000000000000000, 0.000000000000000000, 0.000000000000000000 ) ) ;
#24 = PRODUCT ( '4d4c', '4d4c', '', ( #188 ) ) ;
#25 = DIRECTION ( 'NONE',  ( 0.000000000000000000, 0.000000000000000000, 1.000000000000000000 ) ) ;
#26 = CARTESIAN_POINT ( 'NONE',  ( 2.100000000000000089, 2.571758278209441957E-16, 318.0000000000000000 ) ) ;
#27 = ORIENTED_EDGE ( 'NONE', *, *, #73, .T. ) ;
#28 = APPLICATION_CONTEXT ( 'configuration controlled 3d designs of mechanical parts and assemblies' ) ;
#29 = DIRECTION ( 'NONE',  ( 1.000000000000000000, 0.000000000000000000, -0.000000000000000000 ) ) ;
#30 = PLANE ( 'NONE',  #115 ) ;
#31 = APPROVAL ( #153, 'NEURÈENÝ' ) ;
#32 = DIRECTION ( 'NONE',  ( 0.000000000000000000, 0.000000000000000000, 1.000000000000000000 ) ) ;
#33 = PERSON_AND_ORGANIZATION ( #20, #212 ) ;
#34 = CARTESIAN_POINT ( 'NONE',  ( 4.000000000000000000, 4.898587196589412829E-16, 3.000000000000000000 ) ) ;
#35 = EDGE_CURVE ( 'NONE', #90, #64, #224, .T. ) ;
#36 = DATE_TIME_ROLE ( 'classification_date' ) ;
#37 = APPROVAL_DATE_TIME ( #16, #2 ) ;
#38 = CIRCLE ( 'NONE', #234, 4.000000000000000000 ) ;
#39 = EDGE_CURVE ( 'NONE', #104, #80, #48, .T. ) ;
#40 = APPROVAL_PERSON_ORGANIZATION ( #254, #31, #75 ) ;
#41 = LOCAL_TIME ( 19, 49, 58.00000000000000000, #99 ) ;
#42 = CARTESIAN_POINT ( 'NONE',  ( 0.000000000000000000, 0.000000000000000000, 318.0000000000000000 ) ) ;
#43 = DIRECTION ( 'NONE',  ( 0.000000000000000000, 0.000000000000000000, 1.000000000000000000 ) ) ;
#44 = PLANE ( 'NONE',  #79 ) ;
#45 = ORIENTED_EDGE ( 'NONE', *, *, #249, .T. ) ;
#46 = DIRECTION ( 'NONE',  ( -1.000000000000000000, 0.000000000000000000, 0.000000000000000000 ) ) ;
#47 = CYLINDRICAL_SURFACE ( 'NONE', #174, 4.000000000000000000 ) ;
#48 = LINE ( 'NONE', #107, #74 ) ;
#49 = DIRECTION ( 'NONE',  ( 1.000000000000000000, 0.000000000000000000, 0.000000000000000000 ) ) ;
#50 = CARTESIAN_POINT ( 'NONE',  ( 0.000000000000000000, 0.000000000000000000, 318.0000000000000000 ) ) ;
#51 =( GEOMETRIC_REPRESENTATION_CONTEXT ( 3 ) GLOBAL_UNCERTAINTY_ASSIGNED_CONTEXT ( ( #127 ) ) GLOBAL_UNIT_ASSIGNED_CONTEXT ( ( #86, #94, #72 ) ) REPRESENTATION_CONTEXT ( 'NONE', 'WORKASPACE' ) );
#52 = EDGE_CURVE ( 'NONE', #64, #90, #244, .T. ) ;
#53 = APPROVAL_ROLE ( '' ) ;
#54 = CIRCLE ( 'NONE', #232, 2.100000000000000089 ) ;
#55 = PERSON_AND_ORGANIZATION ( #20, #212 ) ;
#56 = ADVANCED_FACE ( 'NONE', ( #222 ), #47, .T. ) ;
#57 = DIRECTION ( 'NONE',  ( 0.000000000000000000, 0.000000000000000000, 1.000000000000000000 ) ) ;
#58 = DIRECTION ( 'NONE',  ( 0.000000000000000000, 0.000000000000000000, 1.000000000000000000 ) ) ;
#59 = ORIENTED_EDGE ( 'NONE', *, *, #116, .F. ) ;
#60 = ADVANCED_FACE ( 'NONE', ( #129 ), #30, .T. ) ;
#61 = DIRECTION ( 'NONE',  ( 0.000000000000000000, 0.000000000000000000, 1.000000000000000000 ) ) ;
#62 = DIRECTION ( 'NONE',  ( 1.000000000000000000, 0.000000000000000000, 0.000000000000000000 ) ) ;
#63 = CARTESIAN_POINT ( 'NONE',  ( 0.000000000000000000, 0.000000000000000000, 0.000000000000000000 ) ) ;
#64 = VERTEX_POINT ( 'NONE', #34 ) ;
#65 = DATE_AND_TIME ( #250, #178 ) ;
#66 = DIRECTION ( 'NONE',  ( 0.000000000000000000, 0.000000000000000000, 1.000000000000000000 ) ) ;
#67 = MANIFOLD_SOLID_BREP ( 'Pøidat vysunutím3', #189 ) ;
#68 = ADVANCED_FACE ( 'NONE', ( #113 ), #183, .T. ) ;
#69 = AXIS2_PLACEMENT_3D ( 'NONE', #92, #190, #49 ) ;
#70 = CC_DESIGN_APPROVAL ( #31, ( #5 ) ) ;
#71 = PERSON_AND_ORGANIZATION ( #20, #212 ) ;
#72 =( NAMED_UNIT ( * ) SI_UNIT ( $, .STERADIAN. ) SOLID_ANGLE_UNIT ( ) );
#73 = EDGE_CURVE ( 'NONE', #12, #109, #255, .T. ) ;
#74 = VECTOR ( 'NONE', #182, 1000.000000000000000 ) ;
#75 = APPROVAL_ROLE ( '' ) ;
#76 = VERTEX_POINT ( 'NONE', #139 ) ;
#77 = EDGE_CURVE ( 'NONE', #104, #207, #54, .T. ) ;
#78 = AXIS2_PLACEMENT_3D ( 'NONE', #93, #66, #62 ) ;
#79 = AXIS2_PLACEMENT_3D ( 'NONE', #63, #217, #161 ) ;
#80 = VERTEX_POINT ( 'NONE', #163 ) ;
#81 = AXIS2_PLACEMENT_3D ( 'NONE', #165, #184, #143 ) ;
#82 = CYLINDRICAL_SURFACE ( 'NONE', #200, 2.100000000000000089 ) ;
#83 = APPROVAL_PERSON_ORGANIZATION ( #55, #2, #53 ) ;
#84 = LINE ( 'NONE', #237, #175 ) ;
#85 = ORIENTED_EDGE ( 'NONE', *, *, #241, .F. ) ;
#86 =( LENGTH_UNIT ( ) NAMED_UNIT ( * ) SI_UNIT ( .MILLI., .METRE. ) );
#87 = ORIENTED_EDGE ( 'NONE', *, *, #77, .F. ) ;
#88 = AXIS2_PLACEMENT_3D ( 'NONE', #125, #226, #168 ) ;
#89 = DIRECTION ( 'NONE',  ( -0.000000000000000000, -0.000000000000000000, -1.000000000000000000 ) ) ;
#90 = VERTEX_POINT ( 'NONE', #245 ) ;
#91 = FACE_OUTER_BOUND ( 'NONE', #9, .T. ) ;
#92 = CARTESIAN_POINT ( 'NONE',  ( 0.000000000000000000, 0.000000000000000000, 0.000000000000000000 ) ) ;
#93 = CARTESIAN_POINT ( 'NONE',  ( 0.000000000000000000, 0.000000000000000000, 3.000000000000000000 ) ) ;
#94 =( NAMED_UNIT ( * ) PLANE_ANGLE_UNIT ( ) SI_UNIT ( $, .RADIAN. ) );
#95 = PRODUCT_DEFINITION ( 'NEZNÁMÝ', '', #5, #138 ) ;
#96 = COORDINATED_UNIVERSAL_TIME_OFFSET ( 1, 0, .AHEAD. ) ;
#97 = APPROVAL_ROLE ( '' ) ;
#98 = AXIS2_PLACEMENT_3D ( 'NONE', #177, #25, #29 ) ;
#99 = COORDINATED_UNIVERSAL_TIME_OFFSET ( 1, 0, .AHEAD. ) ;
#100 = CC_DESIGN_PERSON_AND_ORGANIZATION_ASSIGNMENT ( #33, #186, ( #111 ) ) ;
#101 = ORIENTED_EDGE ( 'NONE', *, *, #35, .F. ) ;
#102 = CARTESIAN_POINT ( 'NONE',  ( 0.000000000000000000, 0.000000000000000000, 3.000000000000000000 ) ) ;
#103 = DIRECTION ( 'NONE',  ( -0.000000000000000000, -0.000000000000000000, -1.000000000000000000 ) ) ;
#104 = VERTEX_POINT ( 'NONE', #26 ) ;
#105 = CIRCLE ( 'NONE', #151, 2.100000000000000089 ) ;
#106 = FACE_OUTER_BOUND ( 'NONE', #147, .T. ) ;
#107 = CARTESIAN_POINT ( 'NONE',  ( 2.100000000000000089, 2.571758278209441957E-16, 318.0000000000000000 ) ) ;
#108 = DIRECTION ( 'NONE',  ( 1.000000000000000000, 0.000000000000000000, 0.000000000000000000 ) ) ;
#109 = VERTEX_POINT ( 'NONE', #124 ) ;
#110 = DIRECTION ( 'NONE',  ( 1.000000000000000000, 0.000000000000000000, -0.000000000000000000 ) ) ;
#111 = SECURITY_CLASSIFICATION ( '', '', #206 ) ;
#112 = EDGE_CURVE ( 'NONE', #80, #76, #194, .T. ) ;
#113 = FACE_OUTER_BOUND ( 'NONE', #236, .T. ) ;
#114 = PERSON_AND_ORGANIZATION ( #20, #212 ) ;
#115 = AXIS2_PLACEMENT_3D ( 'NONE', #50, #32, #110 ) ;
#116 = EDGE_CURVE ( 'NONE', #207, #76, #167, .T. ) ;
#117 = APPROVAL_PERSON_ORGANIZATION ( #114, #154, #97 ) ;
#118 = ADVANCED_FACE ( 'NONE', ( #201, #106 ), #203, .T. ) ;
#119 = PRODUCT_DEFINITION_SHAPE ( 'NONE', 'NONE',  #95 ) ;
#120 = AXIS2_PLACEMENT_3D ( 'NONE', #102, #57, #216 ) ;
#121 = CC_DESIGN_DATE_AND_TIME_ASSIGNMENT ( #208, #173, ( #95 ) ) ;
#122 = CARTESIAN_POINT ( 'NONE',  ( 0.000000000000000000, 0.000000000000000000, 318.0000000000000000 ) ) ;
#123 = CARTESIAN_POINT ( 'NONE',  ( 0.000000000000000000, 0.000000000000000000, 3.000000000000000000 ) ) ;
#124 = CARTESIAN_POINT ( 'NONE',  ( -4.000000000000000000, 0.000000000000000000, 0.000000000000000000 ) ) ;
#125 = CARTESIAN_POINT ( 'NONE',  ( 0.000000000000000000, 0.000000000000000000, 318.0000000000000000 ) ) ;
#126 = CARTESIAN_POINT ( 'NONE',  ( 0.000000000000000000, 0.000000000000000000, 0.000000000000000000 ) ) ;
#127 = UNCERTAINTY_MEASURE_WITH_UNIT (LENGTH_MEASURE( 1.000000000000000082E-05 ), #86, 'distance_accuracy_value', 'NONE');
#128 = CARTESIAN_POINT ( 'NONE',  ( 0.000000000000000000, 0.000000000000000000, 3.000000000000000000 ) ) ;
#129 = FACE_OUTER_BOUND ( 'NONE', #22, .T. ) ;
#130 = DATE_AND_TIME ( #228, #213 ) ;
#131 = CALENDAR_DATE ( 2022, 7, 7 ) ;
#132 = APPROVAL_STATUS ( 'not_yet_approved' ) ;
#133 = APPROVAL_DATE_TIME ( #215, #154 ) ;
#134 = CC_DESIGN_APPROVAL ( #2, ( #95 ) ) ;
#135 = SHAPE_DEFINITION_REPRESENTATION ( #119, #230 ) ;
#136 = ADVANCED_FACE ( 'NONE', ( #4 ), #44, .F. ) ;
#137 = CARTESIAN_POINT ( 'NONE',  ( 0.000000000000000000, 0.000000000000000000, 3.000000000000000000 ) ) ;
#138 = DESIGN_CONTEXT ( 'detailed design', #144, 'design' ) ;
#139 = CARTESIAN_POINT ( 'NONE',  ( -2.100000000000000089, 0.000000000000000000, 3.000000000000000000 ) ) ;
#140 = ORIENTED_EDGE ( 'NONE', *, *, #249, .F. ) ;
#141 = CARTESIAN_POINT ( 'NONE',  ( 0.000000000000000000, 0.000000000000000000, 318.0000000000000000 ) ) ;
#142 = AXIS2_PLACEMENT_3D ( 'NONE', #122, #61, #197 ) ;
#143 = DIRECTION ( 'NONE',  ( 1.000000000000000000, 0.000000000000000000, 0.000000000000000000 ) ) ;
#144 = APPLICATION_CONTEXT ( 'configuration controlled 3d designs of mechanical parts and assemblies' ) ;
#145 = CC_DESIGN_PERSON_AND_ORGANIZATION_ASSIGNMENT ( #225, #150, ( #5 ) ) ;
#146 = DIRECTION ( 'NONE',  ( 1.000000000000000000, 0.000000000000000000, 0.000000000000000000 ) ) ;
#147 = EDGE_LOOP ( 'NONE', ( #202, #246 ) ) ;
#148 = PERSON_AND_ORGANIZATION_ROLE ( 'creator' ) ;
#149 = ORIENTED_EDGE ( 'NONE', *, *, #152, .T. ) ;
#150 = PERSON_AND_ORGANIZATION_ROLE ( 'design_supplier' ) ;
#151 = AXIS2_PLACEMENT_3D ( 'NONE', #123, #179, #108 ) ;
#152 = EDGE_CURVE ( 'NONE', #64, #12, #181, .T. ) ;
#153 = APPROVAL_STATUS ( 'not_yet_approved' ) ;
#154 = APPROVAL ( #1, 'NEURÈENÝ' ) ;
#155 = COORDINATED_UNIVERSAL_TIME_OFFSET ( 1, 0, .AHEAD. ) ;
#156 = ADVANCED_FACE ( 'NONE', ( #221 ), #82, .T. ) ;
#157 = ORIENTED_EDGE ( 'NONE', *, *, #218, .F. ) ;
#158 = DIRECTION ( 'NONE',  ( -0.000000000000000000, -0.000000000000000000, -1.000000000000000000 ) ) ;
#159 = ORIENTED_EDGE ( 'NONE', *, *, #112, .F. ) ;
#160 = CARTESIAN_POINT ( 'NONE',  ( -2.100000000000000089, 0.000000000000000000, 318.0000000000000000 ) ) ;
#161 = DIRECTION ( 'NONE',  ( 1.000000000000000000, 0.000000000000000000, -0.000000000000000000 ) ) ;
#162 = ORIENTED_EDGE ( 'NONE', *, *, #39, .F. ) ;
#163 = CARTESIAN_POINT ( 'NONE',  ( 2.100000000000000089, 2.571758278209441957E-16, 3.000000000000000000 ) ) ;
#164 = AXIS2_PLACEMENT_3D ( 'NONE', #126, #58, #199 ) ;
#165 = CARTESIAN_POINT ( 'NONE',  ( 0.000000000000000000, 0.000000000000000000, 3.000000000000000000 ) ) ;
#166 = VECTOR ( 'NONE', #219, 1000.000000000000000 ) ;
#167 = LINE ( 'NONE', #6, #166 ) ;
#168 = DIRECTION ( 'NONE',  ( -1.000000000000000000, 0.000000000000000000, 0.000000000000000000 ) ) ;
#169 = ORIENTED_EDGE ( 'NONE', *, *, #73, .F. ) ;
#170 = CALENDAR_DATE ( 2022, 7, 7 ) ;
#171 = PERSON_AND_ORGANIZATION ( #20, #212 ) ;
#172 = APPLICATION_PROTOCOL_DEFINITION ( 'international standard', 'config_control_design', 1994, #28 ) ;
#173 = DATE_TIME_ROLE ( 'creation_date' ) ;
#174 = AXIS2_PLACEMENT_3D ( 'NONE', #128, #204, #205 ) ;
#175 = VECTOR ( 'NONE', #242, 1000.000000000000000 ) ;
#176 = ORIENTED_EDGE ( 'NONE', *, *, #241, .T. ) ;
#177 = CARTESIAN_POINT ( 'NONE',  ( 0.000000000000000000, 0.000000000000000000, 3.000000000000000000 ) ) ;
#178 = LOCAL_TIME ( 19, 49, 58.00000000000000000, #155 ) ;
#179 = DIRECTION ( 'NONE',  ( 0.000000000000000000, 0.000000000000000000, 1.000000000000000000 ) ) ;
#180 = CYLINDRICAL_SURFACE ( 'NONE', #88, 2.100000000000000089 ) ;
#181 = LINE ( 'NONE', #8, #238 ) ;
#182 = DIRECTION ( 'NONE',  ( -0.000000000000000000, -0.000000000000000000, -1.000000000000000000 ) ) ;
#183 = CYLINDRICAL_SURFACE ( 'NONE', #209, 4.000000000000000000 ) ;
#184 = DIRECTION ( 'NONE',  ( 0.000000000000000000, 0.000000000000000000, 1.000000000000000000 ) ) ;
#185 = EDGE_LOOP ( 'NONE', ( #85, #159 ) ) ;
#186 = PERSON_AND_ORGANIZATION_ROLE ( 'classification_officer' ) ;
#187 = ORIENTED_EDGE ( 'NONE', *, *, #233, .F. ) ;
#188 = MECHANICAL_CONTEXT ( 'NONE', #28, 'mechanical' ) ;
#189 = CLOSED_SHELL ( 'NONE', ( #17, #56, #68, #118, #136, #156, #60 ) ) ;
#190 = DIRECTION ( 'NONE',  ( 0.000000000000000000, 0.000000000000000000, 1.000000000000000000 ) ) ;
#191 = COORDINATED_UNIVERSAL_TIME_OFFSET ( 1, 0, .AHEAD. ) ;
#192 = CALENDAR_DATE ( 2022, 7, 7 ) ;
#193 = CC_DESIGN_PERSON_AND_ORGANIZATION_ASSIGNMENT ( #71, #148, ( #5 ) ) ;
#194 = CIRCLE ( 'NONE', #120, 2.100000000000000089 ) ;
#195 = EDGE_LOOP ( 'NONE', ( #11, #149, #27, #140 ) ) ;
#196 = ORIENTED_EDGE ( 'NONE', *, *, #233, .T. ) ;
#197 = DIRECTION ( 'NONE',  ( 1.000000000000000000, 0.000000000000000000, 0.000000000000000000 ) ) ;
#198 = CC_DESIGN_DATE_AND_TIME_ASSIGNMENT ( #130, #36, ( #111 ) ) ;
#199 = DIRECTION ( 'NONE',  ( 1.000000000000000000, 0.000000000000000000, 0.000000000000000000 ) ) ;
#200 = AXIS2_PLACEMENT_3D ( 'NONE', #42, #158, #46 ) ;
#201 = FACE_BOUND ( 'NONE', #185, .T. ) ;
#202 = ORIENTED_EDGE ( 'NONE', *, *, #35, .T. ) ;
#203 = PLANE ( 'NONE',  #98 ) ;
#204 = DIRECTION ( 'NONE',  ( -0.000000000000000000, -0.000000000000000000, -1.000000000000000000 ) ) ;
#205 = DIRECTION ( 'NONE',  ( -1.000000000000000000, 0.000000000000000000, 0.000000000000000000 ) ) ;
#206 = SECURITY_CLASSIFICATION_LEVEL ( 'unclassified' ) ;
#207 = VERTEX_POINT ( 'NONE', #160 ) ;
#208 = DATE_AND_TIME ( #170, #227 ) ;
#209 = AXIS2_PLACEMENT_3D ( 'NONE', #137, #103, #240 ) ;
#210 = PERSON_AND_ORGANIZATION_ROLE ( 'design_owner' ) ;
#211 = CC_DESIGN_PERSON_AND_ORGANIZATION_ASSIGNMENT ( #171, #13, ( #95 ) ) ;
#212 = ORGANIZATION ( 'NEURÈENÝ', 'NEURÈENÝ', '' ) ;
#213 = LOCAL_TIME ( 19, 49, 58.00000000000000000, #229 ) ;
#214 = PRODUCT_RELATED_PRODUCT_CATEGORY ( 'detail', '', ( #24 ) ) ;
#215 = DATE_AND_TIME ( #192, #41 ) ;
#216 = DIRECTION ( 'NONE',  ( 1.000000000000000000, 0.000000000000000000, 0.000000000000000000 ) ) ;
#217 = DIRECTION ( 'NONE',  ( 0.000000000000000000, 0.000000000000000000, 1.000000000000000000 ) ) ;
#218 = EDGE_CURVE ( 'NONE', #207, #104, #18, .T. ) ;
#219 = DIRECTION ( 'NONE',  ( -0.000000000000000000, -0.000000000000000000, -1.000000000000000000 ) ) ;
#220 = ORIENTED_EDGE ( 'NONE', *, *, #218, .T. ) ;
#221 = FACE_OUTER_BOUND ( 'NONE', #251, .T. ) ;
#222 = FACE_OUTER_BOUND ( 'NONE', #195, .T. ) ;
#223 = CARTESIAN_POINT ( 'NONE',  ( 4.000000000000000000, 4.898587196589412829E-16, 0.000000000000000000 ) ) ;
#224 = CIRCLE ( 'NONE', #78, 4.000000000000000000 ) ;
#225 = PERSON_AND_ORGANIZATION ( #20, #212 ) ;
#226 = DIRECTION ( 'NONE',  ( -0.000000000000000000, -0.000000000000000000, -1.000000000000000000 ) ) ;
#227 = LOCAL_TIME ( 19, 49, 58.00000000000000000, #96 ) ;
#228 = CALENDAR_DATE ( 2022, 7, 7 ) ;
#229 = COORDINATED_UNIVERSAL_TIME_OFFSET ( 1, 0, .AHEAD. ) ;
#230 = ADVANCED_BREP_SHAPE_REPRESENTATION ( '4d4c', ( #67, #69 ), #51 ) ;
#231 = APPLICATION_PROTOCOL_DEFINITION ( 'international standard', 'config_control_design', 1994, #144 ) ;
#232 = AXIS2_PLACEMENT_3D ( 'NONE', #141, #247, #10 ) ;
#233 = EDGE_CURVE ( 'NONE', #109, #12, #38, .T. ) ;
#234 = AXIS2_PLACEMENT_3D ( 'NONE', #23, #43, #146 ) ;
#235 = ORIENTED_EDGE ( 'NONE', *, *, #152, .F. ) ;
#236 = EDGE_LOOP ( 'NONE', ( #235, #101, #45, #196 ) ) ;
#237 = CARTESIAN_POINT ( 'NONE',  ( -4.000000000000000000, 0.000000000000000000, 3.000000000000000000 ) ) ;
#238 = VECTOR ( 'NONE', #89, 1000.000000000000000 ) ;
#239 = CC_DESIGN_SECURITY_CLASSIFICATION ( #111, ( #5 ) ) ;
#240 = DIRECTION ( 'NONE',  ( -1.000000000000000000, 0.000000000000000000, 0.000000000000000000 ) ) ;
#241 = EDGE_CURVE ( 'NONE', #76, #80, #105, .T. ) ;
#242 = DIRECTION ( 'NONE',  ( -0.000000000000000000, -0.000000000000000000, -1.000000000000000000 ) ) ;
#243 = ORIENTED_EDGE ( 'NONE', *, *, #112, .T. ) ;
#244 = CIRCLE ( 'NONE', #81, 4.000000000000000000 ) ;
#245 = CARTESIAN_POINT ( 'NONE',  ( -4.000000000000000000, 0.000000000000000000, 3.000000000000000000 ) ) ;
#246 = ORIENTED_EDGE ( 'NONE', *, *, #52, .T. ) ;
#247 = DIRECTION ( 'NONE',  ( 0.000000000000000000, 0.000000000000000000, 1.000000000000000000 ) ) ;
#248 = EDGE_LOOP ( 'NONE', ( #187, #169 ) ) ;
#249 = EDGE_CURVE ( 'NONE', #90, #109, #84, .T. ) ;
#250 = CALENDAR_DATE ( 2022, 7, 7 ) ;
#251 = EDGE_LOOP ( 'NONE', ( #162, #157, #3, #176 ) ) ;
#252 = APPROVAL_DATE_TIME ( #65, #31 ) ;
#253 = PERSON_AND_ORGANIZATION ( #20, #212 ) ;
#254 = PERSON_AND_ORGANIZATION ( #20, #212 ) ;
#255 = CIRCLE ( 'NONE', #164, 4.000000000000000000 ) ;
ENDSEC;
END-ISO-10303-21;
