ISO-10303-21;
HEADER;
FILE_DESCRIPTION (( 'STEP AP203' ),
    '1' );
FILE_NAME ('834d.STEP',
    '2022-07-07T17:20:09',
    ( '' ),
    ( '' ),
    'SwSTEP 2.0',
    'SolidWorks 2019',
    '' );
FILE_SCHEMA (( 'CONFIG_CONTROL_DESIGN' ));
ENDSEC;

DATA;
#1 =( LENGTH_UNIT ( ) NAMED_UNIT ( * ) SI_UNIT ( .MILLI., .METRE. ) );
#2 = DATE_TIME_ROLE ( 'creation_date' ) ;
#3 = DIRECTION ( 'NONE',  ( 1.000000000000000000, 0.000000000000000000, 0.000000000000000000 ) ) ;
#4 = DATE_AND_TIME ( #174, #156 ) ;
#5 = ORIENTED_EDGE ( 'NONE', *, *, #134, .F. ) ;
#6 = EDGE_CURVE ( 'NONE', #121, #63, #212, .T. ) ;
#7 = ORIENTED_EDGE ( 'NONE', *, *, #58, .F. ) ;
#8 = PLANE ( 'NONE',  #136 ) ;
#9 = CARTESIAN_POINT ( 'NONE',  ( 0.000000000000000000, 0.000000000000000000, 7.000000000000000000 ) ) ;
#10 = DIRECTION ( 'NONE',  ( -0.000000000000000000, -0.000000000000000000, -1.000000000000000000 ) ) ;
#11 = CYLINDRICAL_SURFACE ( 'NONE', #106, 6.000000000000000888 ) ;
#12 = CARTESIAN_POINT ( 'NONE',  ( 6.000000000000000888, 7.347880794884120722E-16, 167.0000000000000000 ) ) ;
#13 = ADVANCED_BREP_SHAPE_REPRESENTATION ( '834d', ( #25, #152 ), #90 ) ;
#14 = CARTESIAN_POINT ( 'NONE',  ( 0.000000000000000000, 0.000000000000000000, 0.000000000000000000 ) ) ;
#15 = CARTESIAN_POINT ( 'NONE',  ( 0.000000000000000000, 0.000000000000000000, 7.000000000000000000 ) ) ;
#16 = DIRECTION ( 'NONE',  ( 0.000000000000000000, 0.000000000000000000, 1.000000000000000000 ) ) ;
#17 = PERSON_AND_ORGANIZATION ( #48, #92 ) ;
#18 = ORIENTED_EDGE ( 'NONE', *, *, #238, .T. ) ;
#19 = APPROVAL_ROLE ( '' ) ;
#20 = ORIENTED_EDGE ( 'NONE', *, *, #114, .F. ) ;
#21 = CARTESIAN_POINT ( 'NONE',  ( 0.000000000000000000, 0.000000000000000000, 0.000000000000000000 ) ) ;
#22 = CYLINDRICAL_SURFACE ( 'NONE', #145, 9.000000000000000000 ) ;
#23 = AXIS2_PLACEMENT_3D ( 'NONE', #219, #178, #56 ) ;
#24 = CARTESIAN_POINT ( 'NONE',  ( 0.000000000000000000, 0.000000000000000000, 7.000000000000000000 ) ) ;
#25 = MANIFOLD_SOLID_BREP ( 'Pøidat vysunutím3', #175 ) ;
#26 = EDGE_CURVE ( 'NONE', #63, #121, #97, .T. ) ;
#27 = DIRECTION ( 'NONE',  ( -1.000000000000000000, 0.000000000000000000, 0.000000000000000000 ) ) ;
#28 = DIRECTION ( 'NONE',  ( 0.000000000000000000, 0.000000000000000000, 1.000000000000000000 ) ) ;
#29 = CARTESIAN_POINT ( 'NONE',  ( 0.000000000000000000, 0.000000000000000000, 167.0000000000000000 ) ) ;
#30 = PERSON_AND_ORGANIZATION ( #48, #92 ) ;
#31 = SHAPE_DEFINITION_REPRESENTATION ( #138, #13 ) ;
#32 = DESIGN_CONTEXT ( 'detailed design', #247, 'design' ) ;
#33 = CC_DESIGN_APPROVAL ( #137, ( #251 ) ) ;
#34 = VECTOR ( 'NONE', #130, 1000.000000000000000 ) ;
#35 = PERSON_AND_ORGANIZATION ( #48, #92 ) ;
#36 = AXIS2_PLACEMENT_3D ( 'NONE', #15, #125, #142 ) ;
#37 = APPLICATION_PROTOCOL_DEFINITION ( 'international standard', 'config_control_design', 1994, #247 ) ;
#38 = CC_DESIGN_DATE_AND_TIME_ASSIGNMENT ( #253, #112, ( #192 ) ) ;
#39 = EDGE_LOOP ( 'NONE', ( #245, #61 ) ) ;
#40 = DIRECTION ( 'NONE',  ( 1.000000000000000000, 0.000000000000000000, 0.000000000000000000 ) ) ;
#41 = ADVANCED_FACE ( 'NONE', ( #195 ), #8, .T. ) ;
#42 = EDGE_LOOP ( 'NONE', ( #7, #177, #123, #5 ) ) ;
#43 = APPROVAL ( #120, 'NEURÈENÝ' ) ;
#44 = DIRECTION ( 'NONE',  ( -0.000000000000000000, -0.000000000000000000, -1.000000000000000000 ) ) ;
#45 = ORIENTED_EDGE ( 'NONE', *, *, #228, .F. ) ;
#46 = CARTESIAN_POINT ( 'NONE',  ( 9.000000000000000000, 1.102182119232617714E-15, 7.000000000000000000 ) ) ;
#47 = CARTESIAN_POINT ( 'NONE',  ( 6.000000000000000888, 7.347880794884120722E-16, 7.000000000000000000 ) ) ;
#48 = PERSON ( 'NEURÈENÝ', 'NEURÈENÝ', 'NEURÈENÝ', ('NEURÈENÝ'), ('NEURÈENÝ'), ('NEURÈENÝ') ) ;
#49 = VECTOR ( 'NONE', #44, 1000.000000000000000 ) ;
#50 = DIRECTION ( 'NONE',  ( -0.000000000000000000, -0.000000000000000000, -1.000000000000000000 ) ) ;
#51 = DIRECTION ( 'NONE',  ( -1.000000000000000000, 0.000000000000000000, 0.000000000000000000 ) ) ;
#52 = CYLINDRICAL_SURFACE ( 'NONE', #213, 6.000000000000000888 ) ;
#53 = AXIS2_PLACEMENT_3D ( 'NONE', #226, #172, #168 ) ;
#54 = SECURITY_CLASSIFICATION_LEVEL ( 'unclassified' ) ;
#55 = CC_DESIGN_PERSON_AND_ORGANIZATION_ASSIGNMENT ( #190, #135, ( #185 ) ) ;
#56 = DIRECTION ( 'NONE',  ( 1.000000000000000000, 0.000000000000000000, 0.000000000000000000 ) ) ;
#57 = ORIENTED_EDGE ( 'NONE', *, *, #151, .F. ) ;
#58 = EDGE_CURVE ( 'NONE', #196, #59, #188, .T. ) ;
#59 = VERTEX_POINT ( 'NONE', #119 ) ;
#60 = DIRECTION ( 'NONE',  ( 1.000000000000000000, 0.000000000000000000, 0.000000000000000000 ) ) ;
#61 = ORIENTED_EDGE ( 'NONE', *, *, #26, .F. ) ;
#62 = DATE_AND_TIME ( #240, #133 ) ;
#63 = VERTEX_POINT ( 'NONE', #67 ) ;
#64 = APPROVAL_PERSON_ORGANIZATION ( #17, #137, #146 ) ;
#65 = DIRECTION ( 'NONE',  ( 0.000000000000000000, 0.000000000000000000, 1.000000000000000000 ) ) ;
#66 = FACE_OUTER_BOUND ( 'NONE', #179, .T. ) ;
#67 = CARTESIAN_POINT ( 'NONE',  ( 9.000000000000000000, 1.102182119232617714E-15, 0.000000000000000000 ) ) ;
#68 = AXIS2_PLACEMENT_3D ( 'NONE', #70, #105, #229 ) ;
#69 = FACE_OUTER_BOUND ( 'NONE', #39, .T. ) ;
#70 = CARTESIAN_POINT ( 'NONE',  ( 0.000000000000000000, 0.000000000000000000, 0.000000000000000000 ) ) ;
#71 = APPROVAL_DATE_TIME ( #210, #93 ) ;
#72 = CALENDAR_DATE ( 2022, 7, 7 ) ;
#73 = EDGE_CURVE ( 'NONE', #236, #63, #250, .T. ) ;
#74 = PERSON_AND_ORGANIZATION ( #48, #92 ) ;
#75 = AXIS2_PLACEMENT_3D ( 'NONE', #225, #169, #187 ) ;
#76 = PERSON_AND_ORGANIZATION ( #48, #92 ) ;
#77 = ORIENTED_EDGE ( 'NONE', *, *, #151, .T. ) ;
#78 = COORDINATED_UNIVERSAL_TIME_OFFSET ( 1, 0, .AHEAD. ) ;
#79 = ORIENTED_EDGE ( 'NONE', *, *, #73, .T. ) ;
#80 = ORIENTED_EDGE ( 'NONE', *, *, #108, .T. ) ;
#81 = PRODUCT ( '834d', '834d', '', ( #215 ) ) ;
#82 = CARTESIAN_POINT ( 'NONE',  ( 0.000000000000000000, 0.000000000000000000, 167.0000000000000000 ) ) ;
#83 = CARTESIAN_POINT ( 'NONE',  ( 0.000000000000000000, 0.000000000000000000, 167.0000000000000000 ) ) ;
#84 = DIRECTION ( 'NONE',  ( -0.000000000000000000, -0.000000000000000000, -1.000000000000000000 ) ) ;
#85 = FACE_OUTER_BOUND ( 'NONE', #198, .T. ) ;
#86 = ADVANCED_FACE ( 'NONE', ( #184, #66 ), #88, .T. ) ;
#87 = LOCAL_TIME ( 19, 20, 9.000000000000000000, #101 ) ;
#88 = PLANE ( 'NONE',  #183 ) ;
#89 = CC_DESIGN_DATE_AND_TIME_ASSIGNMENT ( #4, #2, ( #251 ) ) ;
#90 =( GEOMETRIC_REPRESENTATION_CONTEXT ( 3 ) GLOBAL_UNCERTAINTY_ASSIGNED_CONTEXT ( ( #124 ) ) GLOBAL_UNIT_ASSIGNED_CONTEXT ( ( #1, #140, #235 ) ) REPRESENTATION_CONTEXT ( 'NONE', 'WORKASPACE' ) );
#91 = PERSON_AND_ORGANIZATION_ROLE ( 'design_supplier' ) ;
#92 = ORGANIZATION ( 'NEURÈENÝ', 'NEURÈENÝ', '' ) ;
#93 = APPROVAL ( #254, 'NEURÈENÝ' ) ;
#94 = PERSON_AND_ORGANIZATION_ROLE ( 'design_owner' ) ;
#95 = PERSON_AND_ORGANIZATION_ROLE ( 'creator' ) ;
#96 = EDGE_LOOP ( 'NONE', ( #166, #220 ) ) ;
#97 = CIRCLE ( 'NONE', #249, 9.000000000000000000 ) ;
#98 = CIRCLE ( 'NONE', #233, 6.000000000000000888 ) ;
#99 = CALENDAR_DATE ( 2022, 7, 7 ) ;
#100 = ORIENTED_EDGE ( 'NONE', *, *, #223, .F. ) ;
#101 = COORDINATED_UNIVERSAL_TIME_OFFSET ( 1, 0, .AHEAD. ) ;
#102 = EDGE_LOOP ( 'NONE', ( #144, #20 ) ) ;
#103 = AXIS2_PLACEMENT_3D ( 'NONE', #132, #131, #208 ) ;
#104 = CIRCLE ( 'NONE', #103, 9.000000000000000000 ) ;
#105 = DIRECTION ( 'NONE',  ( 0.000000000000000000, 0.000000000000000000, 1.000000000000000000 ) ) ;
#106 = AXIS2_PLACEMENT_3D ( 'NONE', #83, #186, #51 ) ;
#107 = DIRECTION ( 'NONE',  ( -0.000000000000000000, -0.000000000000000000, -1.000000000000000000 ) ) ;
#108 = EDGE_CURVE ( 'NONE', #236, #197, #104, .T. ) ;
#109 = FACE_OUTER_BOUND ( 'NONE', #147, .T. ) ;
#110 = DIRECTION ( 'NONE',  ( 1.000000000000000000, 0.000000000000000000, 0.000000000000000000 ) ) ;
#111 = COORDINATED_UNIVERSAL_TIME_OFFSET ( 1, 0, .AHEAD. ) ;
#112 = DATE_TIME_ROLE ( 'classification_date' ) ;
#113 = ADVANCED_FACE ( 'NONE', ( #204 ), #22, .T. ) ;
#114 = EDGE_CURVE ( 'NONE', #141, #243, #201, .T. ) ;
#115 = CC_DESIGN_PERSON_AND_ORGANIZATION_ASSIGNMENT ( #211, #231, ( #192 ) ) ;
#116 = CIRCLE ( 'NONE', #23, 9.000000000000000000 ) ;
#117 = COORDINATED_UNIVERSAL_TIME_OFFSET ( 1, 0, .AHEAD. ) ;
#118 = DIRECTION ( 'NONE',  ( 0.000000000000000000, 0.000000000000000000, 1.000000000000000000 ) ) ;
#119 = CARTESIAN_POINT ( 'NONE',  ( -6.000000000000000888, 0.000000000000000000, 167.0000000000000000 ) ) ;
#120 = APPROVAL_STATUS ( 'not_yet_approved' ) ;
#121 = VERTEX_POINT ( 'NONE', #202 ) ;
#122 = APPROVAL_DATE_TIME ( #163, #43 ) ;
#123 = ORIENTED_EDGE ( 'NONE', *, *, #114, .T. ) ;
#124 = UNCERTAINTY_MEASURE_WITH_UNIT (LENGTH_MEASURE( 1.000000000000000082E-05 ), #1, 'distance_accuracy_value', 'NONE');
#125 = DIRECTION ( 'NONE',  ( 0.000000000000000000, 0.000000000000000000, 1.000000000000000000 ) ) ;
#126 = ORIENTED_EDGE ( 'NONE', *, *, #73, .F. ) ;
#127 = CARTESIAN_POINT ( 'NONE',  ( -6.000000000000000888, 0.000000000000000000, 167.0000000000000000 ) ) ;
#128 = CARTESIAN_POINT ( 'NONE',  ( -9.000000000000000000, 0.000000000000000000, 7.000000000000000000 ) ) ;
#129 = CC_DESIGN_APPROVAL ( #43, ( #185 ) ) ;
#130 = DIRECTION ( 'NONE',  ( -0.000000000000000000, -0.000000000000000000, -1.000000000000000000 ) ) ;
#131 = DIRECTION ( 'NONE',  ( 0.000000000000000000, 0.000000000000000000, 1.000000000000000000 ) ) ;
#132 = CARTESIAN_POINT ( 'NONE',  ( 0.000000000000000000, 0.000000000000000000, 7.000000000000000000 ) ) ;
#133 = LOCAL_TIME ( 19, 20, 9.000000000000000000, #117 ) ;
#134 = EDGE_CURVE ( 'NONE', #59, #243, #230, .T. ) ;
#135 = PERSON_AND_ORGANIZATION_ROLE ( 'creator' ) ;
#136 = AXIS2_PLACEMENT_3D ( 'NONE', #82, #148, #239 ) ;
#137 = APPROVAL ( #242, 'NEURÈENÝ' ) ;
#138 = PRODUCT_DEFINITION_SHAPE ( 'NONE', 'NONE',  #251 ) ;
#139 = ADVANCED_FACE ( 'NONE', ( #252 ), #11, .T. ) ;
#140 =( NAMED_UNIT ( * ) PLANE_ANGLE_UNIT ( ) SI_UNIT ( $, .RADIAN. ) );
#141 = VERTEX_POINT ( 'NONE', #47 ) ;
#142 = DIRECTION ( 'NONE',  ( 1.000000000000000000, 0.000000000000000000, 0.000000000000000000 ) ) ;
#143 = ORIENTED_EDGE ( 'NONE', *, *, #6, .T. ) ;
#144 = ORIENTED_EDGE ( 'NONE', *, *, #238, .F. ) ;
#145 = AXIS2_PLACEMENT_3D ( 'NONE', #24, #10, #149 ) ;
#146 = APPROVAL_ROLE ( '' ) ;
#147 = EDGE_LOOP ( 'NONE', ( #241, #79, #167, #57 ) ) ;
#148 = DIRECTION ( 'NONE',  ( 0.000000000000000000, 0.000000000000000000, 1.000000000000000000 ) ) ;
#149 = DIRECTION ( 'NONE',  ( -1.000000000000000000, 0.000000000000000000, 0.000000000000000000 ) ) ;
#150 = LINE ( 'NONE', #246, #232 ) ;
#151 = EDGE_CURVE ( 'NONE', #197, #121, #150, .T. ) ;
#152 = AXIS2_PLACEMENT_3D ( 'NONE', #14, #118, #60 ) ;
#153 = PLANE ( 'NONE',  #68 ) ;
#154 = DIRECTION ( 'NONE',  ( 1.000000000000000000, 0.000000000000000000, -0.000000000000000000 ) ) ;
#155 = AXIS2_PLACEMENT_3D ( 'NONE', #218, #224, #40 ) ;
#156 = LOCAL_TIME ( 19, 20, 9.000000000000000000, #78 ) ;
#157 = ADVANCED_FACE ( 'NONE', ( #85 ), #52, .T. ) ;
#158 = CALENDAR_DATE ( 2022, 7, 7 ) ;
#159 = LOCAL_TIME ( 19, 20, 9.000000000000000000, #111 ) ;
#160 = ADVANCED_FACE ( 'NONE', ( #109 ), #199, .T. ) ;
#161 = CARTESIAN_POINT ( 'NONE',  ( 9.000000000000000000, 1.102182119232617714E-15, 7.000000000000000000 ) ) ;
#162 = DIRECTION ( 'NONE',  ( 1.000000000000000000, 0.000000000000000000, 0.000000000000000000 ) ) ;
#163 = DATE_AND_TIME ( #99, #87 ) ;
#164 = ORIENTED_EDGE ( 'NONE', *, *, #205, .F. ) ;
#165 = CC_DESIGN_PERSON_AND_ORGANIZATION_ASSIGNMENT ( #74, #95, ( #251 ) ) ;
#166 = ORIENTED_EDGE ( 'NONE', *, *, #205, .T. ) ;
#167 = ORIENTED_EDGE ( 'NONE', *, *, #26, .T. ) ;
#168 = DIRECTION ( 'NONE',  ( 1.000000000000000000, 0.000000000000000000, 0.000000000000000000 ) ) ;
#169 = DIRECTION ( 'NONE',  ( -0.000000000000000000, -0.000000000000000000, -1.000000000000000000 ) ) ;
#170 = AXIS2_PLACEMENT_3D ( 'NONE', #21, #65, #162 ) ;
#171 = CARTESIAN_POINT ( 'NONE',  ( 6.000000000000000888, 7.347880794884120722E-16, 167.0000000000000000 ) ) ;
#172 = DIRECTION ( 'NONE',  ( 0.000000000000000000, 0.000000000000000000, 1.000000000000000000 ) ) ;
#173 = APPROVAL_ROLE ( '' ) ;
#174 = CALENDAR_DATE ( 2022, 7, 7 ) ;
#175 = CLOSED_SHELL ( 'NONE', ( #139, #160, #113, #86, #200, #157, #41 ) ) ;
#176 = VECTOR ( 'NONE', #107, 1000.000000000000000 ) ;
#177 = ORIENTED_EDGE ( 'NONE', *, *, #223, .T. ) ;
#178 = DIRECTION ( 'NONE',  ( 0.000000000000000000, 0.000000000000000000, 1.000000000000000000 ) ) ;
#179 = EDGE_LOOP ( 'NONE', ( #217, #80 ) ) ;
#180 = APPLICATION_CONTEXT ( 'configuration controlled 3d designs of mechanical parts and assemblies' ) ;
#181 = EDGE_LOOP ( 'NONE', ( #126, #45, #77, #143 ) ) ;
#182 = CARTESIAN_POINT ( 'NONE',  ( 0.000000000000000000, 0.000000000000000000, 0.000000000000000000 ) ) ;
#183 = AXIS2_PLACEMENT_3D ( 'NONE', #9, #248, #154 ) ;
#184 = FACE_BOUND ( 'NONE', #102, .T. ) ;
#185 = PRODUCT_DEFINITION_FORMATION_WITH_SPECIFIED_SOURCE ( 'LIBOVOLNÝ', '', #81, .NOT_KNOWN. ) ;
#186 = DIRECTION ( 'NONE',  ( -0.000000000000000000, -0.000000000000000000, -1.000000000000000000 ) ) ;
#187 = DIRECTION ( 'NONE',  ( -1.000000000000000000, 0.000000000000000000, 0.000000000000000000 ) ) ;
#188 = CIRCLE ( 'NONE', #155, 6.000000000000000888 ) ;
#189 = LINE ( 'NONE', #12, #49 ) ;
#190 = PERSON_AND_ORGANIZATION ( #48, #92 ) ;
#191 = COORDINATED_UNIVERSAL_TIME_OFFSET ( 1, 0, .AHEAD. ) ;
#192 = SECURITY_CLASSIFICATION ( '', '', #54 ) ;
#193 = PRODUCT_RELATED_PRODUCT_CATEGORY ( 'detail', '', ( #81 ) ) ;
#194 = APPROVAL_DATE_TIME ( #62, #137 ) ;
#195 = FACE_OUTER_BOUND ( 'NONE', #96, .T. ) ;
#196 = VERTEX_POINT ( 'NONE', #171 ) ;
#197 = VERTEX_POINT ( 'NONE', #128 ) ;
#198 = EDGE_LOOP ( 'NONE', ( #100, #164, #222, #18 ) ) ;
#199 = CYLINDRICAL_SURFACE ( 'NONE', #75, 9.000000000000000000 ) ;
#200 = ADVANCED_FACE ( 'NONE', ( #69 ), #153, .F. ) ;
#201 = CIRCLE ( 'NONE', #53, 6.000000000000000888 ) ;
#202 = CARTESIAN_POINT ( 'NONE',  ( -9.000000000000000000, 0.000000000000000000, 0.000000000000000000 ) ) ;
#203 = CIRCLE ( 'NONE', #36, 6.000000000000000888 ) ;
#204 = FACE_OUTER_BOUND ( 'NONE', #181, .T. ) ;
#205 = EDGE_CURVE ( 'NONE', #59, #196, #98, .T. ) ;
#206 = CARTESIAN_POINT ( 'NONE',  ( 0.000000000000000000, 0.000000000000000000, 167.0000000000000000 ) ) ;
#207 = CC_DESIGN_PERSON_AND_ORGANIZATION_ASSIGNMENT ( #30, #91, ( #185 ) ) ;
#208 = DIRECTION ( 'NONE',  ( 1.000000000000000000, 0.000000000000000000, 0.000000000000000000 ) ) ;
#209 = PERSON_AND_ORGANIZATION ( #48, #92 ) ;
#210 = DATE_AND_TIME ( #72, #159 ) ;
#211 = PERSON_AND_ORGANIZATION ( #48, #92 ) ;
#212 = CIRCLE ( 'NONE', #170, 9.000000000000000000 ) ;
#213 = AXIS2_PLACEMENT_3D ( 'NONE', #29, #50, #27 ) ;
#214 = CC_DESIGN_PERSON_AND_ORGANIZATION_ASSIGNMENT ( #35, #94, ( #81 ) ) ;
#215 = MECHANICAL_CONTEXT ( 'NONE', #180, 'mechanical' ) ;
#216 = APPLICATION_PROTOCOL_DEFINITION ( 'international standard', 'config_control_design', 1994, #180 ) ;
#217 = ORIENTED_EDGE ( 'NONE', *, *, #228, .T. ) ;
#218 = CARTESIAN_POINT ( 'NONE',  ( 0.000000000000000000, 0.000000000000000000, 167.0000000000000000 ) ) ;
#219 = CARTESIAN_POINT ( 'NONE',  ( 0.000000000000000000, 0.000000000000000000, 7.000000000000000000 ) ) ;
#220 = ORIENTED_EDGE ( 'NONE', *, *, #58, .T. ) ;
#221 = CARTESIAN_POINT ( 'NONE',  ( -6.000000000000000888, 0.000000000000000000, 7.000000000000000000 ) ) ;
#222 = ORIENTED_EDGE ( 'NONE', *, *, #134, .T. ) ;
#223 = EDGE_CURVE ( 'NONE', #196, #141, #189, .T. ) ;
#224 = DIRECTION ( 'NONE',  ( 0.000000000000000000, 0.000000000000000000, 1.000000000000000000 ) ) ;
#225 = CARTESIAN_POINT ( 'NONE',  ( 0.000000000000000000, 0.000000000000000000, 7.000000000000000000 ) ) ;
#226 = CARTESIAN_POINT ( 'NONE',  ( 0.000000000000000000, 0.000000000000000000, 7.000000000000000000 ) ) ;
#227 = CC_DESIGN_SECURITY_CLASSIFICATION ( #192, ( #185 ) ) ;
#228 = EDGE_CURVE ( 'NONE', #197, #236, #116, .T. ) ;
#229 = DIRECTION ( 'NONE',  ( 1.000000000000000000, 0.000000000000000000, -0.000000000000000000 ) ) ;
#230 = LINE ( 'NONE', #127, #176 ) ;
#231 = PERSON_AND_ORGANIZATION_ROLE ( 'classification_officer' ) ;
#232 = VECTOR ( 'NONE', #84, 1000.000000000000000 ) ;
#233 = AXIS2_PLACEMENT_3D ( 'NONE', #206, #28, #110 ) ;
#234 = LOCAL_TIME ( 19, 20, 9.000000000000000000, #191 ) ;
#235 =( NAMED_UNIT ( * ) SI_UNIT ( $, .STERADIAN. ) SOLID_ANGLE_UNIT ( ) );
#236 = VERTEX_POINT ( 'NONE', #161 ) ;
#237 = APPROVAL_PERSON_ORGANIZATION ( #76, #43, #19 ) ;
#238 = EDGE_CURVE ( 'NONE', #243, #141, #203, .T. ) ;
#239 = DIRECTION ( 'NONE',  ( 1.000000000000000000, 0.000000000000000000, -0.000000000000000000 ) ) ;
#240 = CALENDAR_DATE ( 2022, 7, 7 ) ;
#241 = ORIENTED_EDGE ( 'NONE', *, *, #108, .F. ) ;
#242 = APPROVAL_STATUS ( 'not_yet_approved' ) ;
#243 = VERTEX_POINT ( 'NONE', #221 ) ;
#244 = CC_DESIGN_APPROVAL ( #93, ( #192 ) ) ;
#245 = ORIENTED_EDGE ( 'NONE', *, *, #6, .F. ) ;
#246 = CARTESIAN_POINT ( 'NONE',  ( -9.000000000000000000, 0.000000000000000000, 7.000000000000000000 ) ) ;
#247 = APPLICATION_CONTEXT ( 'configuration controlled 3d designs of mechanical parts and assemblies' ) ;
#248 = DIRECTION ( 'NONE',  ( 0.000000000000000000, 0.000000000000000000, 1.000000000000000000 ) ) ;
#249 = AXIS2_PLACEMENT_3D ( 'NONE', #182, #16, #3 ) ;
#250 = LINE ( 'NONE', #46, #34 ) ;
#251 = PRODUCT_DEFINITION ( 'NEZNÁMÝ', '', #185, #32 ) ;
#252 = FACE_OUTER_BOUND ( 'NONE', #42, .T. ) ;
#253 = DATE_AND_TIME ( #158, #234 ) ;
#254 = APPROVAL_STATUS ( 'not_yet_approved' ) ;
#255 = APPROVAL_PERSON_ORGANIZATION ( #209, #93, #173 ) ;
ENDSEC;
END-ISO-10303-21;
