ISO-10303-21;
HEADER;
FILE_DESCRIPTION (( 'STEP AP203' ),
    '1' );
FILE_NAME ('acab.STEP',
    '2022-07-07T17:25:20',
    ( '' ),
    ( '' ),
    'SwSTEP 2.0',
    'SolidWorks 2019',
    '' );
FILE_SCHEMA (( 'CONFIG_CONTROL_DESIGN' ));
ENDSEC;

DATA;
#1 = DATE_TIME_ROLE ( 'creation_date' ) ;
#2 = AXIS2_PLACEMENT_3D ( 'NONE', #196, #151, #68 ) ;
#3 = DIRECTION ( 'NONE',  ( -0.000000000000000000, -0.000000000000000000, -1.000000000000000000 ) ) ;
#4 = AXIS2_PLACEMENT_3D ( 'NONE', #223, #45, #128 ) ;
#5 = EDGE_CURVE ( 'NONE', #172, #155, #185, .T. ) ;
#6 = AXIS2_PLACEMENT_3D ( 'NONE', #226, #170, #29 ) ;
#7 = FACE_OUTER_BOUND ( 'NONE', #114, .T. ) ;
#8 = ORIENTED_EDGE ( 'NONE', *, *, #142, .F. ) ;
#9 = DIRECTION ( 'NONE',  ( -1.000000000000000000, 0.000000000000000000, 0.000000000000000000 ) ) ;
#10 = PERSON_AND_ORGANIZATION ( #46, #177 ) ;
#11 = EDGE_LOOP ( 'NONE', ( #86, #195, #53, #235 ) ) ;
#12 = CARTESIAN_POINT ( 'NONE',  ( 8.000000000000000000, 9.797174393178825657E-16, 5.000000000000000000 ) ) ;
#13 = CC_DESIGN_DATE_AND_TIME_ASSIGNMENT ( #238, #247, ( #186 ) ) ;
#14 = ORIENTED_EDGE ( 'NONE', *, *, #158, .F. ) ;
#15 = LINE ( 'NONE', #131, #83 ) ;
#16 = ORIENTED_EDGE ( 'NONE', *, *, #225, .T. ) ;
#17 = PERSON_AND_ORGANIZATION_ROLE ( 'design_supplier' ) ;
#18 = CARTESIAN_POINT ( 'NONE',  ( 0.000000000000000000, 0.000000000000000000, 5.000000000000000000 ) ) ;
#19 = CARTESIAN_POINT ( 'NONE',  ( 0.000000000000000000, 0.000000000000000000, 320.0000000000000000 ) ) ;
#20 = DIRECTION ( 'NONE',  ( -1.000000000000000000, 0.000000000000000000, 0.000000000000000000 ) ) ;
#21 = CIRCLE ( 'NONE', #4, 5.099999999999999645 ) ;
#22 = PERSON_AND_ORGANIZATION ( #46, #177 ) ;
#23 = ADVANCED_FACE ( 'NONE', ( #74 ), #56, .T. ) ;
#24 = APPROVAL_ROLE ( '' ) ;
#25 = ORIENTED_EDGE ( 'NONE', *, *, #164, .T. ) ;
#26 = EDGE_CURVE ( 'NONE', #229, #217, #192, .T. ) ;
#27 = DIRECTION ( 'NONE',  ( 0.000000000000000000, 0.000000000000000000, 1.000000000000000000 ) ) ;
#28 = CALENDAR_DATE ( 2022, 7, 7 ) ;
#29 = DIRECTION ( 'NONE',  ( 1.000000000000000000, 0.000000000000000000, 0.000000000000000000 ) ) ;
#30 = LOCAL_TIME ( 19, 25, 20.00000000000000000, #57 ) ;
#31 = PERSON_AND_ORGANIZATION_ROLE ( 'classification_officer' ) ;
#32 = DIRECTION ( 'NONE',  ( 1.000000000000000000, 0.000000000000000000, -0.000000000000000000 ) ) ;
#33 = CC_DESIGN_PERSON_AND_ORGANIZATION_ASSIGNMENT ( #10, #17, ( #237 ) ) ;
#34 = DIRECTION ( 'NONE',  ( -0.000000000000000000, -0.000000000000000000, -1.000000000000000000 ) ) ;
#35 = VERTEX_POINT ( 'NONE', #193 ) ;
#36 = DIRECTION ( 'NONE',  ( -0.000000000000000000, -0.000000000000000000, -1.000000000000000000 ) ) ;
#37 = EDGE_LOOP ( 'NONE', ( #55, #250 ) ) ;
#38 = CC_DESIGN_APPROVAL ( #82, ( #186 ) ) ;
#39 = CALENDAR_DATE ( 2022, 7, 7 ) ;
#40 = PRODUCT_DEFINITION ( 'NEZNÁMÝ', '', #237, #61 ) ;
#41 = CALENDAR_DATE ( 2022, 7, 7 ) ;
#42 = PERSON_AND_ORGANIZATION ( #46, #177 ) ;
#43 = CC_DESIGN_PERSON_AND_ORGANIZATION_ASSIGNMENT ( #22, #166, ( #40 ) ) ;
#44 = MANIFOLD_SOLID_BREP ( 'Pøidat vysunutím3', #138 ) ;
#45 = DIRECTION ( 'NONE',  ( 0.000000000000000000, 0.000000000000000000, 1.000000000000000000 ) ) ;
#46 = PERSON ( 'NEURÈENÝ', 'NEURÈENÝ', 'NEURÈENÝ', ('NEURÈENÝ'), ('NEURÈENÝ'), ('NEURÈENÝ') ) ;
#47 = LINE ( 'NONE', #64, #208 ) ;
#48 = AXIS2_PLACEMENT_3D ( 'NONE', #115, #36, #9 ) ;
#49 = DIRECTION ( 'NONE',  ( 0.000000000000000000, 0.000000000000000000, 1.000000000000000000 ) ) ;
#50 = CARTESIAN_POINT ( 'NONE',  ( 0.000000000000000000, 0.000000000000000000, 320.0000000000000000 ) ) ;
#51 = CARTESIAN_POINT ( 'NONE',  ( 0.000000000000000000, 0.000000000000000000, 5.000000000000000000 ) ) ;
#52 = CC_DESIGN_APPROVAL ( #62, ( #40 ) ) ;
#53 = ORIENTED_EDGE ( 'NONE', *, *, #84, .T. ) ;
#54 = CARTESIAN_POINT ( 'NONE',  ( 8.000000000000000000, 9.797174393178825657E-16, 5.000000000000000000 ) ) ;
#55 = ORIENTED_EDGE ( 'NONE', *, *, #134, .T. ) ;
#56 = PLANE ( 'NONE',  #118 ) ;
#57 = COORDINATED_UNIVERSAL_TIME_OFFSET ( 1, 0, .AHEAD. ) ;
#58 = CARTESIAN_POINT ( 'NONE',  ( 0.000000000000000000, 0.000000000000000000, 0.000000000000000000 ) ) ;
#59 = APPROVAL_PERSON_ORGANIZATION ( #42, #171, #24 ) ;
#60 = CALENDAR_DATE ( 2022, 7, 7 ) ;
#61 = DESIGN_CONTEXT ( 'detailed design', #105, 'design' ) ;
#62 = APPROVAL ( #80, 'NEURÈENÝ' ) ;
#63 = AXIS2_PLACEMENT_3D ( 'NONE', #65, #49, #211 ) ;
#64 = CARTESIAN_POINT ( 'NONE',  ( 5.099999999999999645, 6.245698675651500839E-16, 320.0000000000000000 ) ) ;
#65 = CARTESIAN_POINT ( 'NONE',  ( 0.000000000000000000, 0.000000000000000000, 0.000000000000000000 ) ) ;
#66 = APPROVAL_STATUS ( 'not_yet_approved' ) ;
#67 = EDGE_LOOP ( 'NONE', ( #153, #16, #232, #108 ) ) ;
#68 = DIRECTION ( 'NONE',  ( 1.000000000000000000, 0.000000000000000000, 0.000000000000000000 ) ) ;
#69 = CARTESIAN_POINT ( 'NONE',  ( 0.000000000000000000, 0.000000000000000000, 320.0000000000000000 ) ) ;
#70 = DIRECTION ( 'NONE',  ( 1.000000000000000000, 0.000000000000000000, -0.000000000000000000 ) ) ;
#71 = DIRECTION ( 'NONE',  ( 0.000000000000000000, 0.000000000000000000, 1.000000000000000000 ) ) ;
#72 = DIRECTION ( 'NONE',  ( 0.000000000000000000, 0.000000000000000000, 1.000000000000000000 ) ) ;
#73 = AXIS2_PLACEMENT_3D ( 'NONE', #94, #169, #191 ) ;
#74 = FACE_OUTER_BOUND ( 'NONE', #133, .T. ) ;
#75 = APPROVAL_DATE_TIME ( #77, #171 ) ;
#76 = EDGE_CURVE ( 'NONE', #155, #172, #21, .T. ) ;
#77 = DATE_AND_TIME ( #198, #201 ) ;
#78 = AXIS2_PLACEMENT_3D ( 'NONE', #147, #71, #157 ) ;
#79 =( LENGTH_UNIT ( ) NAMED_UNIT ( * ) SI_UNIT ( .MILLI., .METRE. ) );
#80 = APPROVAL_STATUS ( 'not_yet_approved' ) ;
#81 = APPROVAL_PERSON_ORGANIZATION ( #122, #62, #204 ) ;
#82 = APPROVAL ( #66, 'NEURÈENÝ' ) ;
#83 = VECTOR ( 'NONE', #216, 1000.000000000000000 ) ;
#84 = EDGE_CURVE ( 'NONE', #215, #35, #234, .T. ) ;
#85 = DIRECTION ( 'NONE',  ( -1.000000000000000000, 0.000000000000000000, 0.000000000000000000 ) ) ;
#86 = ORIENTED_EDGE ( 'NONE', *, *, #224, .F. ) ;
#87 = CARTESIAN_POINT ( 'NONE',  ( -8.000000000000000000, 0.000000000000000000, 5.000000000000000000 ) ) ;
#88 = APPROVAL_ROLE ( '' ) ;
#89 = ORIENTED_EDGE ( 'NONE', *, *, #225, .F. ) ;
#90 = LINE ( 'NONE', #137, #246 ) ;
#91 = CC_DESIGN_PERSON_AND_ORGANIZATION_ASSIGNMENT ( #200, #183, ( #113 ) ) ;
#92 = ORIENTED_EDGE ( 'NONE', *, *, #144, .T. ) ;
#93 = PRODUCT_DEFINITION_SHAPE ( 'NONE', 'NONE',  #40 ) ;
#94 = CARTESIAN_POINT ( 'NONE',  ( 0.000000000000000000, 0.000000000000000000, 5.000000000000000000 ) ) ;
#95 = CC_DESIGN_SECURITY_CLASSIFICATION ( #186, ( #237 ) ) ;
#96 = VERTEX_POINT ( 'NONE', #87 ) ;
#97 = CC_DESIGN_PERSON_AND_ORGANIZATION_ASSIGNMENT ( #132, #231, ( #237 ) ) ;
#98 = APPROVAL_DATE_TIME ( #227, #82 ) ;
#99 = DIRECTION ( 'NONE',  ( -1.000000000000000000, 0.000000000000000000, 0.000000000000000000 ) ) ;
#100 = PRODUCT_RELATED_PRODUCT_CATEGORY ( 'detail', '', ( #113 ) ) ;
#101 = FACE_OUTER_BOUND ( 'NONE', #190, .T. ) ;
#102 = COORDINATED_UNIVERSAL_TIME_OFFSET ( 1, 0, .AHEAD. ) ;
#103 = ADVANCED_FACE ( 'NONE', ( #178, #230 ), #156, .T. ) ;
#104 = AXIS2_PLACEMENT_3D ( 'NONE', #109, #251, #85 ) ;
#105 = APPLICATION_CONTEXT ( 'configuration controlled 3d designs of mechanical parts and assemblies' ) ;
#106 = CARTESIAN_POINT ( 'NONE',  ( -5.099999999999999645, 0.000000000000000000, 5.000000000000000000 ) ) ;
#107 = SHAPE_DEFINITION_REPRESENTATION ( #93, #167 ) ;
#108 = ORIENTED_EDGE ( 'NONE', *, *, #164, .F. ) ;
#109 = CARTESIAN_POINT ( 'NONE',  ( 0.000000000000000000, 0.000000000000000000, 320.0000000000000000 ) ) ;
#110 = ORIENTED_EDGE ( 'NONE', *, *, #5, .F. ) ;
#111 = CYLINDRICAL_SURFACE ( 'NONE', #48, 8.000000000000000000 ) ;
#112 = CIRCLE ( 'NONE', #63, 8.000000000000000000 ) ;
#113 = PRODUCT ( 'acab', 'acab', '', ( #184 ) ) ;
#114 = EDGE_LOOP ( 'NONE', ( #89, #110, #25, #252 ) ) ;
#115 = CARTESIAN_POINT ( 'NONE',  ( 0.000000000000000000, 0.000000000000000000, 5.000000000000000000 ) ) ;
#116 = ORIENTED_EDGE ( 'NONE', *, *, #158, .T. ) ;
#117 = CC_DESIGN_APPROVAL ( #171, ( #237 ) ) ;
#118 = AXIS2_PLACEMENT_3D ( 'NONE', #50, #176, #32 ) ;
#119 =( NAMED_UNIT ( * ) SI_UNIT ( $, .STERADIAN. ) SOLID_ANGLE_UNIT ( ) );
#120 = SECURITY_CLASSIFICATION_LEVEL ( 'unclassified' ) ;
#121 = ADVANCED_FACE ( 'NONE', ( #233 ), #152, .F. ) ;
#122 = PERSON_AND_ORGANIZATION ( #46, #177 ) ;
#123 = APPROVAL_DATE_TIME ( #202, #62 ) ;
#124 = CIRCLE ( 'NONE', #6, 5.099999999999999645 ) ;
#125 = APPROVAL_STATUS ( 'not_yet_approved' ) ;
#126 = AXIS2_PLACEMENT_3D ( 'NONE', #58, #239, #165 ) ;
#127 = APPLICATION_CONTEXT ( 'configuration controlled 3d designs of mechanical parts and assemblies' ) ;
#128 = DIRECTION ( 'NONE',  ( 1.000000000000000000, 0.000000000000000000, 0.000000000000000000 ) ) ;
#129 = CARTESIAN_POINT ( 'NONE',  ( 8.000000000000000000, 9.797174393178825657E-16, 0.000000000000000000 ) ) ;
#130 = COORDINATED_UNIVERSAL_TIME_OFFSET ( 1, 0, .AHEAD. ) ;
#131 = CARTESIAN_POINT ( 'NONE',  ( -5.099999999999999645, 0.000000000000000000, 320.0000000000000000 ) ) ;
#132 = PERSON_AND_ORGANIZATION ( #46, #177 ) ;
#133 = EDGE_LOOP ( 'NONE', ( #179, #136 ) ) ;
#134 = EDGE_CURVE ( 'NONE', #96, #213, #218, .T. ) ;
#135 = CARTESIAN_POINT ( 'NONE',  ( 0.000000000000000000, 0.000000000000000000, 5.000000000000000000 ) ) ;
#136 = ORIENTED_EDGE ( 'NONE', *, *, #76, .T. ) ;
#137 = CARTESIAN_POINT ( 'NONE',  ( -8.000000000000000000, 0.000000000000000000, 5.000000000000000000 ) ) ;
#138 = CLOSED_SHELL ( 'NONE', ( #210, #149, #243, #103, #121, #241, #23 ) ) ;
#139 = EDGE_LOOP ( 'NONE', ( #14, #161 ) ) ;
#140 = DIRECTION ( 'NONE',  ( 1.000000000000000000, 0.000000000000000000, 0.000000000000000000 ) ) ;
#141 = AXIS2_PLACEMENT_3D ( 'NONE', #69, #254, #140 ) ;
#142 = EDGE_CURVE ( 'NONE', #213, #215, #228, .T. ) ;
#143 =( GEOMETRIC_REPRESENTATION_CONTEXT ( 3 ) GLOBAL_UNCERTAINTY_ASSIGNED_CONTEXT ( ( #236 ) ) GLOBAL_UNIT_ASSIGNED_CONTEXT ( ( #79, #162, #119 ) ) REPRESENTATION_CONTEXT ( 'NONE', 'WORKASPACE' ) );
#144 = EDGE_CURVE ( 'NONE', #96, #35, #90, .T. ) ;
#145 = CIRCLE ( 'NONE', #73, 8.000000000000000000 ) ;
#146 = LOCAL_TIME ( 19, 25, 20.00000000000000000, #220 ) ;
#147 = CARTESIAN_POINT ( 'NONE',  ( 0.000000000000000000, 0.000000000000000000, 5.000000000000000000 ) ) ;
#148 = CC_DESIGN_PERSON_AND_ORGANIZATION_ASSIGNMENT ( #182, #31, ( #186 ) ) ;
#149 = ADVANCED_FACE ( 'NONE', ( #249 ), #111, .T. ) ;
#150 = LOCAL_TIME ( 19, 25, 20.00000000000000000, #199 ) ;
#151 = DIRECTION ( 'NONE',  ( 0.000000000000000000, 0.000000000000000000, 1.000000000000000000 ) ) ;
#152 = PLANE ( 'NONE',  #222 ) ;
#153 = ORIENTED_EDGE ( 'NONE', *, *, #76, .F. ) ;
#154 = DIRECTION ( 'NONE',  ( 1.000000000000000000, 0.000000000000000000, -0.000000000000000000 ) ) ;
#155 = VERTEX_POINT ( 'NONE', #173 ) ;
#156 = PLANE ( 'NONE',  #160 ) ;
#157 = DIRECTION ( 'NONE',  ( 1.000000000000000000, 0.000000000000000000, 0.000000000000000000 ) ) ;
#158 = EDGE_CURVE ( 'NONE', #35, #215, #112, .T. ) ;
#159 = CARTESIAN_POINT ( 'NONE',  ( 5.099999999999999645, 6.245698675651500839E-16, 5.000000000000000000 ) ) ;
#160 = AXIS2_PLACEMENT_3D ( 'NONE', #51, #72, #70 ) ;
#161 = ORIENTED_EDGE ( 'NONE', *, *, #84, .F. ) ;
#162 =( NAMED_UNIT ( * ) PLANE_ANGLE_UNIT ( ) SI_UNIT ( $, .RADIAN. ) );
#163 = CYLINDRICAL_SURFACE ( 'NONE', #242, 8.000000000000000000 ) ;
#164 = EDGE_CURVE ( 'NONE', #172, #229, #15, .T. ) ;
#165 = DIRECTION ( 'NONE',  ( 1.000000000000000000, 0.000000000000000000, 0.000000000000000000 ) ) ;
#166 = PERSON_AND_ORGANIZATION_ROLE ( 'creator' ) ;
#167 = ADVANCED_BREP_SHAPE_REPRESENTATION ( 'acab', ( #44, #126 ), #143 ) ;
#168 = AXIS2_PLACEMENT_3D ( 'NONE', #135, #214, #253 ) ;
#169 = DIRECTION ( 'NONE',  ( 0.000000000000000000, 0.000000000000000000, 1.000000000000000000 ) ) ;
#170 = DIRECTION ( 'NONE',  ( 0.000000000000000000, 0.000000000000000000, 1.000000000000000000 ) ) ;
#171 = APPROVAL ( #125, 'NEURÈENÝ' ) ;
#172 = VERTEX_POINT ( 'NONE', #175 ) ;
#173 = CARTESIAN_POINT ( 'NONE',  ( 5.099999999999999645, 6.245698675651500839E-16, 320.0000000000000000 ) ) ;
#174 = EDGE_LOOP ( 'NONE', ( #206, #197 ) ) ;
#175 = CARTESIAN_POINT ( 'NONE',  ( -5.099999999999999645, 0.000000000000000000, 320.0000000000000000 ) ) ;
#176 = DIRECTION ( 'NONE',  ( 0.000000000000000000, 0.000000000000000000, 1.000000000000000000 ) ) ;
#177 = ORGANIZATION ( 'NEURÈENÝ', 'NEURÈENÝ', '' ) ;
#178 = FACE_BOUND ( 'NONE', #174, .T. ) ;
#179 = ORIENTED_EDGE ( 'NONE', *, *, #5, .T. ) ;
#180 = AXIS2_PLACEMENT_3D ( 'NONE', #19, #219, #20 ) ;
#181 = APPROVAL_PERSON_ORGANIZATION ( #212, #82, #88 ) ;
#182 = PERSON_AND_ORGANIZATION ( #46, #177 ) ;
#183 = PERSON_AND_ORGANIZATION_ROLE ( 'design_owner' ) ;
#184 = MECHANICAL_CONTEXT ( 'NONE', #127, 'mechanical' ) ;
#185 = CIRCLE ( 'NONE', #141, 5.099999999999999645 ) ;
#186 = SECURITY_CLASSIFICATION ( '', '', #120 ) ;
#187 = VECTOR ( 'NONE', #34, 1000.000000000000000 ) ;
#188 = CC_DESIGN_DATE_AND_TIME_ASSIGNMENT ( #221, #1, ( #40 ) ) ;
#189 = FACE_OUTER_BOUND ( 'NONE', #67, .T. ) ;
#190 = EDGE_LOOP ( 'NONE', ( #8, #248, #92, #116 ) ) ;
#191 = DIRECTION ( 'NONE',  ( 1.000000000000000000, 0.000000000000000000, 0.000000000000000000 ) ) ;
#192 = CIRCLE ( 'NONE', #78, 5.099999999999999645 ) ;
#193 = CARTESIAN_POINT ( 'NONE',  ( -8.000000000000000000, 0.000000000000000000, 0.000000000000000000 ) ) ;
#194 = CYLINDRICAL_SURFACE ( 'NONE', #104, 5.099999999999999645 ) ;
#195 = ORIENTED_EDGE ( 'NONE', *, *, #142, .T. ) ;
#196 = CARTESIAN_POINT ( 'NONE',  ( 0.000000000000000000, 0.000000000000000000, 0.000000000000000000 ) ) ;
#197 = ORIENTED_EDGE ( 'NONE', *, *, #205, .F. ) ;
#198 = CALENDAR_DATE ( 2022, 7, 7 ) ;
#199 = COORDINATED_UNIVERSAL_TIME_OFFSET ( 1, 0, .AHEAD. ) ;
#200 = PERSON_AND_ORGANIZATION ( #46, #177 ) ;
#201 = LOCAL_TIME ( 19, 25, 20.00000000000000000, #102 ) ;
#202 = DATE_AND_TIME ( #41, #146 ) ;
#203 = CYLINDRICAL_SURFACE ( 'NONE', #180, 5.099999999999999645 ) ;
#204 = APPROVAL_ROLE ( '' ) ;
#205 = EDGE_CURVE ( 'NONE', #217, #229, #124, .T. ) ;
#206 = ORIENTED_EDGE ( 'NONE', *, *, #26, .F. ) ;
#207 = LOCAL_TIME ( 19, 25, 20.00000000000000000, #130 ) ;
#208 = VECTOR ( 'NONE', #209, 1000.000000000000000 ) ;
#209 = DIRECTION ( 'NONE',  ( -0.000000000000000000, -0.000000000000000000, -1.000000000000000000 ) ) ;
#210 = ADVANCED_FACE ( 'NONE', ( #189 ), #194, .T. ) ;
#211 = DIRECTION ( 'NONE',  ( 1.000000000000000000, 0.000000000000000000, 0.000000000000000000 ) ) ;
#212 = PERSON_AND_ORGANIZATION ( #46, #177 ) ;
#213 = VERTEX_POINT ( 'NONE', #12 ) ;
#214 = DIRECTION ( 'NONE',  ( 0.000000000000000000, 0.000000000000000000, 1.000000000000000000 ) ) ;
#215 = VERTEX_POINT ( 'NONE', #129 ) ;
#216 = DIRECTION ( 'NONE',  ( -0.000000000000000000, -0.000000000000000000, -1.000000000000000000 ) ) ;
#217 = VERTEX_POINT ( 'NONE', #159 ) ;
#218 = CIRCLE ( 'NONE', #168, 8.000000000000000000 ) ;
#219 = DIRECTION ( 'NONE',  ( -0.000000000000000000, -0.000000000000000000, -1.000000000000000000 ) ) ;
#220 = COORDINATED_UNIVERSAL_TIME_OFFSET ( 1, 0, .AHEAD. ) ;
#221 = DATE_AND_TIME ( #60, #30 ) ;
#222 = AXIS2_PLACEMENT_3D ( 'NONE', #244, #27, #154 ) ;
#223 = CARTESIAN_POINT ( 'NONE',  ( 0.000000000000000000, 0.000000000000000000, 320.0000000000000000 ) ) ;
#224 = EDGE_CURVE ( 'NONE', #213, #96, #145, .T. ) ;
#225 = EDGE_CURVE ( 'NONE', #155, #217, #47, .T. ) ;
#226 = CARTESIAN_POINT ( 'NONE',  ( 0.000000000000000000, 0.000000000000000000, 5.000000000000000000 ) ) ;
#227 = DATE_AND_TIME ( #28, #150 ) ;
#228 = LINE ( 'NONE', #54, #187 ) ;
#229 = VERTEX_POINT ( 'NONE', #106 ) ;
#230 = FACE_OUTER_BOUND ( 'NONE', #37, .T. ) ;
#231 = PERSON_AND_ORGANIZATION_ROLE ( 'creator' ) ;
#232 = ORIENTED_EDGE ( 'NONE', *, *, #205, .T. ) ;
#233 = FACE_OUTER_BOUND ( 'NONE', #139, .T. ) ;
#234 = CIRCLE ( 'NONE', #2, 8.000000000000000000 ) ;
#235 = ORIENTED_EDGE ( 'NONE', *, *, #144, .F. ) ;
#236 = UNCERTAINTY_MEASURE_WITH_UNIT (LENGTH_MEASURE( 1.000000000000000082E-05 ), #79, 'distance_accuracy_value', 'NONE');
#237 = PRODUCT_DEFINITION_FORMATION_WITH_SPECIFIED_SOURCE ( 'LIBOVOLNÝ', '', #113, .NOT_KNOWN. ) ;
#238 = DATE_AND_TIME ( #39, #207 ) ;
#239 = DIRECTION ( 'NONE',  ( 0.000000000000000000, 0.000000000000000000, 1.000000000000000000 ) ) ;
#240 = APPLICATION_PROTOCOL_DEFINITION ( 'international standard', 'config_control_design', 1994, #127 ) ;
#241 = ADVANCED_FACE ( 'NONE', ( #7 ), #203, .T. ) ;
#242 = AXIS2_PLACEMENT_3D ( 'NONE', #18, #3, #99 ) ;
#243 = ADVANCED_FACE ( 'NONE', ( #101 ), #163, .T. ) ;
#244 = CARTESIAN_POINT ( 'NONE',  ( 0.000000000000000000, 0.000000000000000000, 0.000000000000000000 ) ) ;
#245 = DIRECTION ( 'NONE',  ( -0.000000000000000000, -0.000000000000000000, -1.000000000000000000 ) ) ;
#246 = VECTOR ( 'NONE', #245, 1000.000000000000000 ) ;
#247 = DATE_TIME_ROLE ( 'classification_date' ) ;
#248 = ORIENTED_EDGE ( 'NONE', *, *, #134, .F. ) ;
#249 = FACE_OUTER_BOUND ( 'NONE', #11, .T. ) ;
#250 = ORIENTED_EDGE ( 'NONE', *, *, #224, .T. ) ;
#251 = DIRECTION ( 'NONE',  ( -0.000000000000000000, -0.000000000000000000, -1.000000000000000000 ) ) ;
#252 = ORIENTED_EDGE ( 'NONE', *, *, #26, .T. ) ;
#253 = DIRECTION ( 'NONE',  ( 1.000000000000000000, 0.000000000000000000, 0.000000000000000000 ) ) ;
#254 = DIRECTION ( 'NONE',  ( 0.000000000000000000, 0.000000000000000000, 1.000000000000000000 ) ) ;
#255 = APPLICATION_PROTOCOL_DEFINITION ( 'international standard', 'config_control_design', 1994, #105 ) ;
ENDSEC;
END-ISO-10303-21;
