ISO-10303-21;
HEADER;
FILE_DESCRIPTION (( 'STEP AP203' ),
    '1' );
FILE_NAME ('88ad.STEP',
    '2023-02-13T16:39:23',
    ( '' ),
    ( '' ),
    'SwSTEP 2.0',
    'SolidWorks 2019',
    '' );
FILE_SCHEMA (( 'CONFIG_CONTROL_DESIGN' ));
ENDSEC;

DATA;
#1 = COORDINATED_UNIVERSAL_TIME_OFFSET ( 1, 0, .AHEAD. ) ;
#2 = DIRECTION ( 'NONE',  ( 0.000000000000000000, 0.000000000000000000, 1.000000000000000000 ) ) ;
#3 = COORDINATED_UNIVERSAL_TIME_OFFSET ( 1, 0, .AHEAD. ) ;
#4 = CC_DESIGN_PERSON_AND_ORGANIZATION_ASSIGNMENT ( #159, #221, ( #244 ) ) ;
#5 = PERSON_AND_ORGANIZATION ( #241, #9 ) ;
#6 = CYLINDRICAL_SURFACE ( 'NONE', #91, 3.000000000000000444 ) ;
#7 = DIRECTION ( 'NONE',  ( 0.000000000000000000, 0.000000000000000000, 1.000000000000000000 ) ) ;
#8 = CC_DESIGN_PERSON_AND_ORGANIZATION_ASSIGNMENT ( #5, #51, ( #109 ) ) ;
#9 = ORGANIZATION ( 'NEURÈENÝ', 'NEURÈENÝ', '' ) ;
#10 = CARTESIAN_POINT ( 'NONE',  ( 1.500000000000000222, 1.836970198721029934E-16, 100.0000000000000000 ) ) ;
#11 = APPROVAL_ROLE ( '' ) ;
#12 = DIRECTION ( 'NONE',  ( -0.000000000000000000, -0.000000000000000000, -1.000000000000000000 ) ) ;
#13 = EDGE_LOOP ( 'NONE', ( #132, #232, #188, #228 ) ) ;
#14 = ORIENTED_EDGE ( 'NONE', *, *, #53, .F. ) ;
#15 = CIRCLE ( 'NONE', #115, 3.000000000000000444 ) ;
#16 = CC_DESIGN_APPROVAL ( #191, ( #109 ) ) ;
#17 = ORIENTED_EDGE ( 'NONE', *, *, #182, .T. ) ;
#18 = ORIENTED_EDGE ( 'NONE', *, *, #210, .F. ) ;
#19 = DIRECTION ( 'NONE',  ( -1.000000000000000000, 0.000000000000000000, 0.000000000000000000 ) ) ;
#20 = ORIENTED_EDGE ( 'NONE', *, *, #147, .T. ) ;
#21 = LINE ( 'NONE', #143, #226 ) ;
#22 = DIRECTION ( 'NONE',  ( -0.000000000000000000, -0.000000000000000000, -1.000000000000000000 ) ) ;
#23 = AXIS2_PLACEMENT_3D ( 'NONE', #227, #187, #19 ) ;
#24 = APPROVAL_PERSON_ORGANIZATION ( #58, #191, #139 ) ;
#25 = DIRECTION ( 'NONE',  ( 0.000000000000000000, 0.000000000000000000, 1.000000000000000000 ) ) ;
#26 = APPROVAL_STATUS ( 'not_yet_approved' ) ;
#27 = DIRECTION ( 'NONE',  ( 1.000000000000000000, 0.000000000000000000, -0.000000000000000000 ) ) ;
#28 = APPROVAL_DATE_TIME ( #106, #191 ) ;
#29 = VERTEX_POINT ( 'NONE', #142 ) ;
#30 = APPROVAL_DATE_TIME ( #130, #216 ) ;
#31 = ADVANCED_FACE ( 'NONE', ( #220 ), #158, .T. ) ;
#32 = CARTESIAN_POINT ( 'NONE',  ( 0.000000000000000000, 0.000000000000000000, 100.0000000000000000 ) ) ;
#33 = CYLINDRICAL_SURFACE ( 'NONE', #90, 1.500000000000000222 ) ;
#34 = EDGE_LOOP ( 'NONE', ( #20, #121 ) ) ;
#35 = APPROVAL_STATUS ( 'not_yet_approved' ) ;
#36 = CARTESIAN_POINT ( 'NONE',  ( 0.000000000000000000, 0.000000000000000000, 0.000000000000000000 ) ) ;
#37 = DIRECTION ( 'NONE',  ( 1.000000000000000000, 0.000000000000000000, 0.000000000000000000 ) ) ;
#38 = ADVANCED_FACE ( 'NONE', ( #219 ), #119, .T. ) ;
#39 = CARTESIAN_POINT ( 'NONE',  ( -3.000000000000000444, 0.000000000000000000, 3.000000000000000000 ) ) ;
#40 = ADVANCED_FACE ( 'NONE', ( #211 ), #6, .T. ) ;
#41 = CARTESIAN_POINT ( 'NONE',  ( -1.500000000000000222, 0.000000000000000000, 3.000000000000000000 ) ) ;
#42 = DIRECTION ( 'NONE',  ( -0.000000000000000000, -0.000000000000000000, -1.000000000000000000 ) ) ;
#43 = CARTESIAN_POINT ( 'NONE',  ( -3.000000000000000444, 0.000000000000000000, 3.000000000000000000 ) ) ;
#44 = LOCAL_TIME ( 17, 39, 23.00000000000000000, #3 ) ;
#45 = CC_DESIGN_DATE_AND_TIME_ASSIGNMENT ( #124, #77, ( #235 ) ) ;
#46 = PRODUCT_DEFINITION_SHAPE ( 'NONE', 'NONE',  #235 ) ;
#47 = DIRECTION ( 'NONE',  ( 0.000000000000000000, 0.000000000000000000, 1.000000000000000000 ) ) ;
#48 = CC_DESIGN_PERSON_AND_ORGANIZATION_ASSIGNMENT ( #133, #238, ( #161 ) ) ;
#49 = APPLICATION_CONTEXT ( 'configuration controlled 3d designs of mechanical parts and assemblies' ) ;
#50 = DIRECTION ( 'NONE',  ( 1.000000000000000000, 0.000000000000000000, 0.000000000000000000 ) ) ;
#51 = PERSON_AND_ORGANIZATION_ROLE ( 'design_supplier' ) ;
#52 = SECURITY_CLASSIFICATION_LEVEL ( 'unclassified' ) ;
#53 = EDGE_CURVE ( 'NONE', #178, #245, #195, .T. ) ;
#54 = LINE ( 'NONE', #10, #237 ) ;
#55 = EDGE_CURVE ( 'NONE', #112, #180, #15, .T. ) ;
#56 = LINE ( 'NONE', #43, #84 ) ;
#57 = VERTEX_POINT ( 'NONE', #163 ) ;
#58 = PERSON_AND_ORGANIZATION ( #241, #9 ) ;
#59 =( GEOMETRIC_REPRESENTATION_CONTEXT ( 3 ) GLOBAL_UNCERTAINTY_ASSIGNED_CONTEXT ( ( #117 ) ) GLOBAL_UNIT_ASSIGNED_CONTEXT ( ( #149, #209, #114 ) ) REPRESENTATION_CONTEXT ( 'NONE', 'WORKASPACE' ) );
#60 = EDGE_CURVE ( 'NONE', #245, #178, #200, .T. ) ;
#61 = CARTESIAN_POINT ( 'NONE',  ( 3.000000000000000444, 3.673940397442060361E-16, 0.000000000000000000 ) ) ;
#62 = DIRECTION ( 'NONE',  ( 0.000000000000000000, 0.000000000000000000, 1.000000000000000000 ) ) ;
#63 = CALENDAR_DATE ( 2023, 13, 2 ) ;
#64 = COORDINATED_UNIVERSAL_TIME_OFFSET ( 1, 0, .AHEAD. ) ;
#65 = DIRECTION ( 'NONE',  ( -1.000000000000000000, 0.000000000000000000, 0.000000000000000000 ) ) ;
#66 = DIRECTION ( 'NONE',  ( 0.000000000000000000, 0.000000000000000000, 1.000000000000000000 ) ) ;
#67 = AXIS2_PLACEMENT_3D ( 'NONE', #240, #66, #203 ) ;
#68 = APPROVAL_DATE_TIME ( #242, #128 ) ;
#69 = CALENDAR_DATE ( 2023, 13, 2 ) ;
#70 = ADVANCED_FACE ( 'NONE', ( #248 ), #151, .T. ) ;
#71 = APPLICATION_CONTEXT ( 'configuration controlled 3d designs of mechanical parts and assemblies' ) ;
#72 = CIRCLE ( 'NONE', #174, 1.500000000000000222 ) ;
#73 = DIRECTION ( 'NONE',  ( 0.000000000000000000, 0.000000000000000000, 1.000000000000000000 ) ) ;
#74 = EDGE_CURVE ( 'NONE', #180, #245, #56, .T. ) ;
#75 = ORIENTED_EDGE ( 'NONE', *, *, #86, .F. ) ;
#76 = ORIENTED_EDGE ( 'NONE', *, *, #197, .T. ) ;
#77 = DATE_TIME_ROLE ( 'creation_date' ) ;
#78 = DESIGN_CONTEXT ( 'detailed design', #49, 'design' ) ;
#79 = CARTESIAN_POINT ( 'NONE',  ( 0.000000000000000000, 0.000000000000000000, 100.0000000000000000 ) ) ;
#80 = ORIENTED_EDGE ( 'NONE', *, *, #210, .T. ) ;
#81 = ORIENTED_EDGE ( 'NONE', *, *, #96, .F. ) ;
#82 = CARTESIAN_POINT ( 'NONE',  ( 1.500000000000000222, 1.836970198721029934E-16, 3.000000000000000000 ) ) ;
#83 = CARTESIAN_POINT ( 'NONE',  ( 0.000000000000000000, 0.000000000000000000, 0.000000000000000000 ) ) ;
#84 = VECTOR ( 'NONE', #22, 1000.000000000000000 ) ;
#85 = COORDINATED_UNIVERSAL_TIME_OFFSET ( 1, 0, .AHEAD. ) ;
#86 = EDGE_CURVE ( 'NONE', #112, #178, #230, .T. ) ;
#87 = PERSON_AND_ORGANIZATION ( #241, #9 ) ;
#88 = CALENDAR_DATE ( 2023, 13, 2 ) ;
#89 = DIRECTION ( 'NONE',  ( 0.000000000000000000, 0.000000000000000000, 1.000000000000000000 ) ) ;
#90 = AXIS2_PLACEMENT_3D ( 'NONE', #32, #12, #94 ) ;
#91 = AXIS2_PLACEMENT_3D ( 'NONE', #251, #116, #125 ) ;
#92 = ORIENTED_EDGE ( 'NONE', *, *, #147, .F. ) ;
#93 = SHAPE_DEFINITION_REPRESENTATION ( #46, #97 ) ;
#94 = DIRECTION ( 'NONE',  ( -1.000000000000000000, 0.000000000000000000, 0.000000000000000000 ) ) ;
#95 = AXIS2_PLACEMENT_3D ( 'NONE', #234, #193, #27 ) ;
#96 = EDGE_CURVE ( 'NONE', #57, #154, #54, .T. ) ;
#97 = ADVANCED_BREP_SHAPE_REPRESENTATION ( '88ad', ( #148, #205 ), #59 ) ;
#98 = ORIENTED_EDGE ( 'NONE', *, *, #182, .F. ) ;
#99 = DIRECTION ( 'NONE',  ( 1.000000000000000000, 0.000000000000000000, -0.000000000000000000 ) ) ;
#100 = EDGE_LOOP ( 'NONE', ( #18, #250 ) ) ;
#101 = CLOSED_SHELL ( 'NONE', ( #254, #70, #40, #113, #231, #38, #31 ) ) ;
#102 = CC_DESIGN_APPROVAL ( #128, ( #161 ) ) ;
#103 = CARTESIAN_POINT ( 'NONE',  ( 0.000000000000000000, 0.000000000000000000, 100.0000000000000000 ) ) ;
#104 = DATE_TIME_ROLE ( 'classification_date' ) ;
#105 = AXIS2_PLACEMENT_3D ( 'NONE', #79, #47, #157 ) ;
#106 = DATE_AND_TIME ( #63, #126 ) ;
#107 = APPLICATION_PROTOCOL_DEFINITION ( 'international standard', 'config_control_design', 1994, #71 ) ;
#108 = APPROVAL_ROLE ( '' ) ;
#109 = PRODUCT_DEFINITION_FORMATION_WITH_SPECIFIED_SOURCE ( 'LIBOVOLNÝ', '', #244, .NOT_KNOWN. ) ;
#110 = ORIENTED_EDGE ( 'NONE', *, *, #134, .F. ) ;
#111 = DIRECTION ( 'NONE',  ( 0.000000000000000000, 0.000000000000000000, 1.000000000000000000 ) ) ;
#112 = VERTEX_POINT ( 'NONE', #135 ) ;
#113 = ADVANCED_FACE ( 'NONE', ( #186, #253 ), #190, .T. ) ;
#114 =( NAMED_UNIT ( * ) SI_UNIT ( $, .STERADIAN. ) SOLID_ANGLE_UNIT ( ) );
#115 = AXIS2_PLACEMENT_3D ( 'NONE', #168, #73, #145 ) ;
#116 = DIRECTION ( 'NONE',  ( -0.000000000000000000, -0.000000000000000000, -1.000000000000000000 ) ) ;
#117 = UNCERTAINTY_MEASURE_WITH_UNIT (LENGTH_MEASURE( 1.000000000000000082E-05 ), #149, 'distance_accuracy_value', 'NONE');
#118 = DIRECTION ( 'NONE',  ( 1.000000000000000000, 0.000000000000000000, 0.000000000000000000 ) ) ;
#119 = CYLINDRICAL_SURFACE ( 'NONE', #137, 1.500000000000000222 ) ;
#120 = CIRCLE ( 'NONE', #67, 1.500000000000000222 ) ;
#121 = ORIENTED_EDGE ( 'NONE', *, *, #55, .T. ) ;
#122 = PERSON_AND_ORGANIZATION ( #241, #9 ) ;
#123 = DIRECTION ( 'NONE',  ( -0.000000000000000000, -0.000000000000000000, -1.000000000000000000 ) ) ;
#124 = DATE_AND_TIME ( #223, #196 ) ;
#125 = DIRECTION ( 'NONE',  ( -1.000000000000000000, 0.000000000000000000, 0.000000000000000000 ) ) ;
#126 = LOCAL_TIME ( 17, 39, 23.00000000000000000, #1 ) ;
#127 = CARTESIAN_POINT ( 'NONE',  ( 0.000000000000000000, 0.000000000000000000, 3.000000000000000000 ) ) ;
#128 = APPROVAL ( #201, 'NEURÈENÝ' ) ;
#129 = FACE_OUTER_BOUND ( 'NONE', #213, .T. ) ;
#130 = DATE_AND_TIME ( #204, #44 ) ;
#131 = APPROVAL_PERSON_ORGANIZATION ( #176, #216, #11 ) ;
#132 = ORIENTED_EDGE ( 'NONE', *, *, #55, .F. ) ;
#133 = PERSON_AND_ORGANIZATION ( #241, #9 ) ;
#134 = EDGE_CURVE ( 'NONE', #29, #57, #217, .T. ) ;
#135 = CARTESIAN_POINT ( 'NONE',  ( 3.000000000000000444, 3.673940397442060361E-16, 3.000000000000000000 ) ) ;
#136 = ORIENTED_EDGE ( 'NONE', *, *, #74, .T. ) ;
#137 = AXIS2_PLACEMENT_3D ( 'NONE', #103, #123, #65 ) ;
#138 = VERTEX_POINT ( 'NONE', #41 ) ;
#139 = APPROVAL_ROLE ( '' ) ;
#140 = MECHANICAL_CONTEXT ( 'NONE', #71, 'mechanical' ) ;
#141 = LOCAL_TIME ( 17, 39, 23.00000000000000000, #246 ) ;
#142 = CARTESIAN_POINT ( 'NONE',  ( -1.500000000000000222, 0.000000000000000000, 100.0000000000000000 ) ) ;
#143 = CARTESIAN_POINT ( 'NONE',  ( -1.500000000000000222, 0.000000000000000000, 100.0000000000000000 ) ) ;
#144 = AXIS2_PLACEMENT_3D ( 'NONE', #233, #62, #118 ) ;
#145 = DIRECTION ( 'NONE',  ( 1.000000000000000000, 0.000000000000000000, 0.000000000000000000 ) ) ;
#146 = LOCAL_TIME ( 17, 39, 23.00000000000000000, #64 ) ;
#147 = EDGE_CURVE ( 'NONE', #180, #112, #189, .T. ) ;
#148 = MANIFOLD_SOLID_BREP ( 'Pøidat vysunutím3', #101 ) ;
#149 =( LENGTH_UNIT ( ) NAMED_UNIT ( * ) SI_UNIT ( .MILLI., .METRE. ) );
#150 = DIRECTION ( 'NONE',  ( 1.000000000000000000, 0.000000000000000000, -0.000000000000000000 ) ) ;
#151 = CYLINDRICAL_SURFACE ( 'NONE', #23, 3.000000000000000444 ) ;
#152 = FACE_OUTER_BOUND ( 'NONE', #252, .T. ) ;
#153 = CC_DESIGN_DATE_AND_TIME_ASSIGNMENT ( #162, #104, ( #161 ) ) ;
#154 = VERTEX_POINT ( 'NONE', #82 ) ;
#155 = ORIENTED_EDGE ( 'NONE', *, *, #96, .T. ) ;
#156 = CC_DESIGN_PERSON_AND_ORGANIZATION_ASSIGNMENT ( #87, #224, ( #109 ) ) ;
#157 = DIRECTION ( 'NONE',  ( 1.000000000000000000, 0.000000000000000000, 0.000000000000000000 ) ) ;
#158 = PLANE ( 'NONE',  #95 ) ;
#159 = PERSON_AND_ORGANIZATION ( #241, #9 ) ;
#160 = AXIS2_PLACEMENT_3D ( 'NONE', #218, #25, #99 ) ;
#161 = SECURITY_CLASSIFICATION ( '', '', #52 ) ;
#162 = DATE_AND_TIME ( #88, #146 ) ;
#163 = CARTESIAN_POINT ( 'NONE',  ( 1.500000000000000222, 1.836970198721029934E-16, 100.0000000000000000 ) ) ;
#164 = EDGE_CURVE ( 'NONE', #29, #138, #21, .T. ) ;
#165 = DIRECTION ( 'NONE',  ( 1.000000000000000000, 0.000000000000000000, 0.000000000000000000 ) ) ;
#166 = CC_DESIGN_SECURITY_CLASSIFICATION ( #161, ( #109 ) ) ;
#167 = DIRECTION ( 'NONE',  ( 0.000000000000000000, 0.000000000000000000, 1.000000000000000000 ) ) ;
#168 = CARTESIAN_POINT ( 'NONE',  ( 0.000000000000000000, 0.000000000000000000, 3.000000000000000000 ) ) ;
#169 = CC_DESIGN_APPROVAL ( #216, ( #235 ) ) ;
#170 = EDGE_LOOP ( 'NONE', ( #207, #17 ) ) ;
#171 = DIRECTION ( 'NONE',  ( -0.000000000000000000, -0.000000000000000000, -1.000000000000000000 ) ) ;
#172 = AXIS2_PLACEMENT_3D ( 'NONE', #127, #167, #37 ) ;
#173 = AXIS2_PLACEMENT_3D ( 'NONE', #202, #89, #208 ) ;
#174 = AXIS2_PLACEMENT_3D ( 'NONE', #222, #225, #50 ) ;
#175 = ORIENTED_EDGE ( 'NONE', *, *, #60, .F. ) ;
#176 = PERSON_AND_ORGANIZATION ( #241, #9 ) ;
#177 = PERSON_AND_ORGANIZATION_ROLE ( 'creator' ) ;
#178 = VERTEX_POINT ( 'NONE', #61 ) ;
#179 = PERSON_AND_ORGANIZATION ( #241, #9 ) ;
#180 = VERTEX_POINT ( 'NONE', #39 ) ;
#181 = EDGE_LOOP ( 'NONE', ( #75, #92, #136, #255 ) ) ;
#182 = EDGE_CURVE ( 'NONE', #57, #29, #72, .T. ) ;
#183 = DIRECTION ( 'NONE',  ( 1.000000000000000000, 0.000000000000000000, 0.000000000000000000 ) ) ;
#184 = CARTESIAN_POINT ( 'NONE',  ( 0.000000000000000000, 0.000000000000000000, 0.000000000000000000 ) ) ;
#185 = CARTESIAN_POINT ( 'NONE',  ( -3.000000000000000444, 0.000000000000000000, 0.000000000000000000 ) ) ;
#186 = FACE_BOUND ( 'NONE', #100, .T. ) ;
#187 = DIRECTION ( 'NONE',  ( -0.000000000000000000, -0.000000000000000000, -1.000000000000000000 ) ) ;
#188 = ORIENTED_EDGE ( 'NONE', *, *, #53, .T. ) ;
#189 = CIRCLE ( 'NONE', #144, 3.000000000000000444 ) ;
#190 = PLANE ( 'NONE',  #160 ) ;
#191 = APPROVAL ( #26, 'NEURÈENÝ' ) ;
#192 = EDGE_LOOP ( 'NONE', ( #81, #110, #199, #80 ) ) ;
#193 = DIRECTION ( 'NONE',  ( 0.000000000000000000, 0.000000000000000000, 1.000000000000000000 ) ) ;
#194 = AXIS2_PLACEMENT_3D ( 'NONE', #36, #111, #183 ) ;
#195 = CIRCLE ( 'NONE', #173, 3.000000000000000444 ) ;
#196 = LOCAL_TIME ( 17, 39, 23.00000000000000000, #85 ) ;
#197 = EDGE_CURVE ( 'NONE', #154, #138, #120, .T. ) ;
#198 = APPLICATION_PROTOCOL_DEFINITION ( 'international standard', 'config_control_design', 1994, #49 ) ;
#199 = ORIENTED_EDGE ( 'NONE', *, *, #164, .T. ) ;
#200 = CIRCLE ( 'NONE', #194, 3.000000000000000444 ) ;
#201 = APPROVAL_STATUS ( 'not_yet_approved' ) ;
#202 = CARTESIAN_POINT ( 'NONE',  ( 0.000000000000000000, 0.000000000000000000, 0.000000000000000000 ) ) ;
#203 = DIRECTION ( 'NONE',  ( 1.000000000000000000, 0.000000000000000000, 0.000000000000000000 ) ) ;
#204 = CALENDAR_DATE ( 2023, 13, 2 ) ;
#205 = AXIS2_PLACEMENT_3D ( 'NONE', #83, #2, #165 ) ;
#206 = VECTOR ( 'NONE', #42, 1000.000000000000000 ) ;
#207 = ORIENTED_EDGE ( 'NONE', *, *, #134, .T. ) ;
#208 = DIRECTION ( 'NONE',  ( 1.000000000000000000, 0.000000000000000000, 0.000000000000000000 ) ) ;
#209 =( NAMED_UNIT ( * ) PLANE_ANGLE_UNIT ( ) SI_UNIT ( $, .RADIAN. ) );
#210 = EDGE_CURVE ( 'NONE', #138, #154, #212, .T. ) ;
#211 = FACE_OUTER_BOUND ( 'NONE', #181, .T. ) ;
#212 = CIRCLE ( 'NONE', #172, 1.500000000000000222 ) ;
#213 = EDGE_LOOP ( 'NONE', ( #98, #155, #76, #229 ) ) ;
#214 = APPROVAL_PERSON_ORGANIZATION ( #179, #128, #108 ) ;
#215 = CARTESIAN_POINT ( 'NONE',  ( 3.000000000000000444, 3.673940397442060361E-16, 3.000000000000000000 ) ) ;
#216 = APPROVAL ( #35, 'NEURÈENÝ' ) ;
#217 = CIRCLE ( 'NONE', #105, 1.500000000000000222 ) ;
#218 = CARTESIAN_POINT ( 'NONE',  ( 0.000000000000000000, 0.000000000000000000, 3.000000000000000000 ) ) ;
#219 = FACE_OUTER_BOUND ( 'NONE', #192, .T. ) ;
#220 = FACE_OUTER_BOUND ( 'NONE', #170, .T. ) ;
#221 = PERSON_AND_ORGANIZATION_ROLE ( 'design_owner' ) ;
#222 = CARTESIAN_POINT ( 'NONE',  ( 0.000000000000000000, 0.000000000000000000, 100.0000000000000000 ) ) ;
#223 = CALENDAR_DATE ( 2023, 13, 2 ) ;
#224 = PERSON_AND_ORGANIZATION_ROLE ( 'creator' ) ;
#225 = DIRECTION ( 'NONE',  ( 0.000000000000000000, 0.000000000000000000, 1.000000000000000000 ) ) ;
#226 = VECTOR ( 'NONE', #171, 1000.000000000000000 ) ;
#227 = CARTESIAN_POINT ( 'NONE',  ( 0.000000000000000000, 0.000000000000000000, 3.000000000000000000 ) ) ;
#228 = ORIENTED_EDGE ( 'NONE', *, *, #74, .F. ) ;
#229 = ORIENTED_EDGE ( 'NONE', *, *, #164, .F. ) ;
#230 = LINE ( 'NONE', #215, #206 ) ;
#231 = ADVANCED_FACE ( 'NONE', ( #152 ), #243, .F. ) ;
#232 = ORIENTED_EDGE ( 'NONE', *, *, #86, .T. ) ;
#233 = CARTESIAN_POINT ( 'NONE',  ( 0.000000000000000000, 0.000000000000000000, 3.000000000000000000 ) ) ;
#234 = CARTESIAN_POINT ( 'NONE',  ( 0.000000000000000000, 0.000000000000000000, 100.0000000000000000 ) ) ;
#235 = PRODUCT_DEFINITION ( 'NEZNÁMÝ', '', #109, #78 ) ;
#236 = AXIS2_PLACEMENT_3D ( 'NONE', #184, #7, #150 ) ;
#237 = VECTOR ( 'NONE', #247, 1000.000000000000000 ) ;
#238 = PERSON_AND_ORGANIZATION_ROLE ( 'classification_officer' ) ;
#239 = CC_DESIGN_PERSON_AND_ORGANIZATION_ASSIGNMENT ( #122, #177, ( #235 ) ) ;
#240 = CARTESIAN_POINT ( 'NONE',  ( 0.000000000000000000, 0.000000000000000000, 3.000000000000000000 ) ) ;
#241 = PERSON ( 'NEURÈENÝ', 'NEURÈENÝ', 'NEURÈENÝ', ('NEURÈENÝ'), ('NEURÈENÝ'), ('NEURÈENÝ') ) ;
#242 = DATE_AND_TIME ( #69, #141 ) ;
#243 = PLANE ( 'NONE',  #236 ) ;
#244 = PRODUCT ( '88ad', '88ad', '', ( #140 ) ) ;
#245 = VERTEX_POINT ( 'NONE', #185 ) ;
#246 = COORDINATED_UNIVERSAL_TIME_OFFSET ( 1, 0, .AHEAD. ) ;
#247 = DIRECTION ( 'NONE',  ( -0.000000000000000000, -0.000000000000000000, -1.000000000000000000 ) ) ;
#248 = FACE_OUTER_BOUND ( 'NONE', #13, .T. ) ;
#249 = PRODUCT_RELATED_PRODUCT_CATEGORY ( 'detail', '', ( #244 ) ) ;
#250 = ORIENTED_EDGE ( 'NONE', *, *, #197, .F. ) ;
#251 = CARTESIAN_POINT ( 'NONE',  ( 0.000000000000000000, 0.000000000000000000, 3.000000000000000000 ) ) ;
#252 = EDGE_LOOP ( 'NONE', ( #175, #14 ) ) ;
#253 = FACE_OUTER_BOUND ( 'NONE', #34, .T. ) ;
#254 = ADVANCED_FACE ( 'NONE', ( #129 ), #33, .T. ) ;
#255 = ORIENTED_EDGE ( 'NONE', *, *, #60, .T. ) ;
ENDSEC;
END-ISO-10303-21;
