ISO-10303-21;
HEADER;
FILE_DESCRIPTION (( 'STEP AP203' ),
    '1' );
FILE_NAME ('e872.STEP',
    '2023-02-13T16:41:15',
    ( '' ),
    ( '' ),
    'SwSTEP 2.0',
    'SolidWorks 2019',
    '' );
FILE_SCHEMA (( 'CONFIG_CONTROL_DESIGN' ));
ENDSEC;

DATA;
#1 = EDGE_CURVE ( 'NONE', #149, #75, #244, .T. ) ;
#2 = VERTEX_POINT ( 'NONE', #201 ) ;
#3 = CYLINDRICAL_SURFACE ( 'NONE', #142, 1.100000000000000089 ) ;
#4 = ORIENTED_EDGE ( 'NONE', *, *, #145, .T. ) ;
#5 = CIRCLE ( 'NONE', #105, 1.100000000000000089 ) ;
#6 = DIRECTION ( 'NONE',  ( 0.000000000000000000, 0.000000000000000000, 1.000000000000000000 ) ) ;
#7 = ORIENTED_EDGE ( 'NONE', *, *, #35, .T. ) ;
#8 = CC_DESIGN_APPROVAL ( #44, ( #40 ) ) ;
#9 = APPLICATION_CONTEXT ( 'configuration controlled 3d designs of mechanical parts and assemblies' ) ;
#10 =( NAMED_UNIT ( * ) SI_UNIT ( $, .STERADIAN. ) SOLID_ANGLE_UNIT ( ) );
#11 = EDGE_LOOP ( 'NONE', ( #197, #7 ) ) ;
#12 = DIRECTION ( 'NONE',  ( -0.000000000000000000, -0.000000000000000000, -1.000000000000000000 ) ) ;
#13 = FACE_OUTER_BOUND ( 'NONE', #209, .T. ) ;
#14 = PRODUCT_RELATED_PRODUCT_CATEGORY ( 'detail', '', ( #176 ) ) ;
#15 = PERSON_AND_ORGANIZATION ( #42, #160 ) ;
#16 = DIRECTION ( 'NONE',  ( 1.000000000000000000, 0.000000000000000000, 0.000000000000000000 ) ) ;
#17 = ORIENTED_EDGE ( 'NONE', *, *, #48, .T. ) ;
#18 = COORDINATED_UNIVERSAL_TIME_OFFSET ( 1, 0, .AHEAD. ) ;
#19 = EDGE_CURVE ( 'NONE', #58, #2, #22, .T. ) ;
#20 = ORIENTED_EDGE ( 'NONE', *, *, #48, .F. ) ;
#21 = CIRCLE ( 'NONE', #178, 2.000000000000000000 ) ;
#22 = LINE ( 'NONE', #97, #164 ) ;
#23 = APPROVAL ( #253, 'NEURÈENÝ' ) ;
#24 = FACE_OUTER_BOUND ( 'NONE', #132, .T. ) ;
#25 = ORIENTED_EDGE ( 'NONE', *, *, #92, .T. ) ;
#26 = CARTESIAN_POINT ( 'NONE',  ( 0.000000000000000000, 0.000000000000000000, 400.0000000000000000 ) ) ;
#27 = ADVANCED_FACE ( 'NONE', ( #24 ), #159, .F. ) ;
#28 = AXIS2_PLACEMENT_3D ( 'NONE', #141, #6, #175 ) ;
#29 = SECURITY_CLASSIFICATION_LEVEL ( 'unclassified' ) ;
#30 = CALENDAR_DATE ( 2023, 13, 2 ) ;
#31 = PERSON_AND_ORGANIZATION_ROLE ( 'creator' ) ;
#32 = ADVANCED_FACE ( 'NONE', ( #220 ), #45, .T. ) ;
#33 = DATE_AND_TIME ( #50, #34 ) ;
#34 = LOCAL_TIME ( 17, 41, 15.00000000000000000, #18 ) ;
#35 = EDGE_CURVE ( 'NONE', #167, #149, #212, .T. ) ;
#36 = DIRECTION ( 'NONE',  ( -0.000000000000000000, -0.000000000000000000, -1.000000000000000000 ) ) ;
#37 = APPROVAL ( #206, 'NEURÈENÝ' ) ;
#38 = CLOSED_SHELL ( 'NONE', ( #32, #116, #236, #239, #27, #98, #71 ) ) ;
#39 = DIRECTION ( 'NONE',  ( 0.000000000000000000, 0.000000000000000000, 1.000000000000000000 ) ) ;
#40 = PRODUCT_DEFINITION_FORMATION_WITH_SPECIFIED_SOURCE ( 'LIBOVOLNÝ', '', #176, .NOT_KNOWN. ) ;
#41 = EDGE_CURVE ( 'NONE', #2, #47, #126, .T. ) ;
#42 = PERSON ( 'NEURÈENÝ', 'NEURÈENÝ', 'NEURÈENÝ', ('NEURÈENÝ'), ('NEURÈENÝ'), ('NEURÈENÝ') ) ;
#43 = DIRECTION ( 'NONE',  ( -0.000000000000000000, -0.000000000000000000, -1.000000000000000000 ) ) ;
#44 = APPROVAL ( #226, 'NEURÈENÝ' ) ;
#45 = CYLINDRICAL_SURFACE ( 'NONE', #195, 1.100000000000000089 ) ;
#46 = ORIENTED_EDGE ( 'NONE', *, *, #19, .T. ) ;
#47 = VERTEX_POINT ( 'NONE', #204 ) ;
#48 = EDGE_CURVE ( 'NONE', #47, #2, #73, .T. ) ;
#49 = APPROVAL_ROLE ( '' ) ;
#50 = CALENDAR_DATE ( 2023, 13, 2 ) ;
#51 = PLANE ( 'NONE',  #89 ) ;
#52 = CIRCLE ( 'NONE', #59, 1.100000000000000089 ) ;
#53 = DIRECTION ( 'NONE',  ( -0.000000000000000000, -0.000000000000000000, -1.000000000000000000 ) ) ;
#54 = DIRECTION ( 'NONE',  ( 0.000000000000000000, 0.000000000000000000, 1.000000000000000000 ) ) ;
#55 = EDGE_CURVE ( 'NONE', #75, #215, #5, .T. ) ;
#56 = ORIENTED_EDGE ( 'NONE', *, *, #35, .F. ) ;
#57 = EDGE_CURVE ( 'NONE', #58, #233, #255, .T. ) ;
#58 = VERTEX_POINT ( 'NONE', #139 ) ;
#59 = AXIS2_PLACEMENT_3D ( 'NONE', #26, #127, #64 ) ;
#60 = DIRECTION ( 'NONE',  ( 1.000000000000000000, 0.000000000000000000, -0.000000000000000000 ) ) ;
#61 = CARTESIAN_POINT ( 'NONE',  ( 0.000000000000000000, 0.000000000000000000, 0.000000000000000000 ) ) ;
#62 = APPLICATION_PROTOCOL_DEFINITION ( 'international standard', 'config_control_design', 1994, #87 ) ;
#63 = CARTESIAN_POINT ( 'NONE',  ( -1.100000000000000089, 0.000000000000000000, 400.0000000000000000 ) ) ;
#64 = DIRECTION ( 'NONE',  ( 1.000000000000000000, 0.000000000000000000, 0.000000000000000000 ) ) ;
#65 = VECTOR ( 'NONE', #122, 1000.000000000000000 ) ;
#66 = PERSON_AND_ORGANIZATION_ROLE ( 'creator' ) ;
#67 = PERSON_AND_ORGANIZATION ( #42, #160 ) ;
#68 = AXIS2_PLACEMENT_3D ( 'NONE', #72, #161, #146 ) ;
#69 = DATE_TIME_ROLE ( 'creation_date' ) ;
#70 = CYLINDRICAL_SURFACE ( 'NONE', #242, 2.000000000000000000 ) ;
#71 = ADVANCED_FACE ( 'NONE', ( #77 ), #203, .T. ) ;
#72 = CARTESIAN_POINT ( 'NONE',  ( 0.000000000000000000, 0.000000000000000000, 400.0000000000000000 ) ) ;
#73 = CIRCLE ( 'NONE', #112, 2.000000000000000000 ) ;
#74 = DIRECTION ( 'NONE',  ( -0.000000000000000000, -0.000000000000000000, -1.000000000000000000 ) ) ;
#75 = VERTEX_POINT ( 'NONE', #118 ) ;
#76 = MECHANICAL_CONTEXT ( 'NONE', #9, 'mechanical' ) ;
#77 = FACE_OUTER_BOUND ( 'NONE', #11, .T. ) ;
#78 = CC_DESIGN_DATE_AND_TIME_ASSIGNMENT ( #187, #108, ( #166 ) ) ;
#79 = DIRECTION ( 'NONE',  ( 1.000000000000000000, 0.000000000000000000, 0.000000000000000000 ) ) ;
#80 = ORIENTED_EDGE ( 'NONE', *, *, #55, .F. ) ;
#81 = VECTOR ( 'NONE', #115, 1000.000000000000000 ) ;
#82 = CARTESIAN_POINT ( 'NONE',  ( 0.000000000000000000, 0.000000000000000000, 400.0000000000000000 ) ) ;
#83 = LINE ( 'NONE', #168, #81 ) ;
#84 = CYLINDRICAL_SURFACE ( 'NONE', #237, 2.000000000000000000 ) ;
#85 = CARTESIAN_POINT ( 'NONE',  ( 0.000000000000000000, 0.000000000000000000, 0.000000000000000000 ) ) ;
#86 = DATE_AND_TIME ( #249, #150 ) ;
#87 = APPLICATION_CONTEXT ( 'configuration controlled 3d designs of mechanical parts and assemblies' ) ;
#88 = CC_DESIGN_PERSON_AND_ORGANIZATION_ASSIGNMENT ( #67, #31, ( #218 ) ) ;
#89 = AXIS2_PLACEMENT_3D ( 'NONE', #136, #117, #60 ) ;
#90 = EDGE_LOOP ( 'NONE', ( #80, #192 ) ) ;
#91 =( LENGTH_UNIT ( ) NAMED_UNIT ( * ) SI_UNIT ( .MILLI., .METRE. ) );
#92 = EDGE_CURVE ( 'NONE', #167, #215, #177, .T. ) ;
#93 = EDGE_LOOP ( 'NONE', ( #113, #125, #144, #185 ) ) ;
#94 = EDGE_LOOP ( 'NONE', ( #56, #25, #103, #162 ) ) ;
#95 = ORIENTED_EDGE ( 'NONE', *, *, #106, .F. ) ;
#96 = LOCAL_TIME ( 17, 41, 15.00000000000000000, #208 ) ;
#97 = CARTESIAN_POINT ( 'NONE',  ( 2.000000000000000000, 2.449293598294706414E-16, 2.000000000000000000 ) ) ;
#98 = ADVANCED_FACE ( 'NONE', ( #121 ), #3, .T. ) ;
#99 = DIRECTION ( 'NONE',  ( 0.000000000000000000, 0.000000000000000000, 1.000000000000000000 ) ) ;
#100 = AXIS2_PLACEMENT_3D ( 'NONE', #82, #246, #240 ) ;
#101 = FACE_BOUND ( 'NONE', #90, .T. ) ;
#102 =( GEOMETRIC_REPRESENTATION_CONTEXT ( 3 ) GLOBAL_UNCERTAINTY_ASSIGNED_CONTEXT ( ( #235 ) ) GLOBAL_UNIT_ASSIGNED_CONTEXT ( ( #91, #163, #10 ) ) REPRESENTATION_CONTEXT ( 'NONE', 'WORKASPACE' ) );
#103 = ORIENTED_EDGE ( 'NONE', *, *, #123, .T. ) ;
#104 = ORIENTED_EDGE ( 'NONE', *, *, #106, .T. ) ;
#105 = AXIS2_PLACEMENT_3D ( 'NONE', #228, #54, #140 ) ;
#106 = EDGE_CURVE ( 'NONE', #233, #47, #83, .T. ) ;
#107 = CARTESIAN_POINT ( 'NONE',  ( -2.000000000000000000, 0.000000000000000000, 2.000000000000000000 ) ) ;
#108 = DATE_TIME_ROLE ( 'classification_date' ) ;
#109 = APPROVAL_PERSON_ORGANIZATION ( #219, #23, #207 ) ;
#110 = DATE_AND_TIME ( #30, #96 ) ;
#111 = PERSON_AND_ORGANIZATION ( #42, #160 ) ;
#112 = AXIS2_PLACEMENT_3D ( 'NONE', #85, #172, #194 ) ;
#113 = ORIENTED_EDGE ( 'NONE', *, *, #92, .F. ) ;
#114 = APPROVAL_DATE_TIME ( #33, #44 ) ;
#115 = DIRECTION ( 'NONE',  ( -0.000000000000000000, -0.000000000000000000, -1.000000000000000000 ) ) ;
#116 = ADVANCED_FACE ( 'NONE', ( #252 ), #70, .T. ) ;
#117 = DIRECTION ( 'NONE',  ( 0.000000000000000000, 0.000000000000000000, 1.000000000000000000 ) ) ;
#118 = CARTESIAN_POINT ( 'NONE',  ( -1.100000000000000089, 0.000000000000000000, 2.000000000000000000 ) ) ;
#119 = LOCAL_TIME ( 17, 41, 15.00000000000000000, #156 ) ;
#120 = ORIENTED_EDGE ( 'NONE', *, *, #19, .F. ) ;
#121 = FACE_OUTER_BOUND ( 'NONE', #93, .T. ) ;
#122 = DIRECTION ( 'NONE',  ( -0.000000000000000000, -0.000000000000000000, -1.000000000000000000 ) ) ;
#123 = EDGE_CURVE ( 'NONE', #215, #75, #241, .T. ) ;
#124 = AXIS2_PLACEMENT_3D ( 'NONE', #61, #128, #79 ) ;
#125 = ORIENTED_EDGE ( 'NONE', *, *, #205, .F. ) ;
#126 = CIRCLE ( 'NONE', #190, 2.000000000000000000 ) ;
#127 = DIRECTION ( 'NONE',  ( 0.000000000000000000, 0.000000000000000000, 1.000000000000000000 ) ) ;
#128 = DIRECTION ( 'NONE',  ( 0.000000000000000000, 0.000000000000000000, 1.000000000000000000 ) ) ;
#129 = ORIENTED_EDGE ( 'NONE', *, *, #41, .T. ) ;
#130 = CARTESIAN_POINT ( 'NONE',  ( 1.100000000000000089, 1.347111479062088503E-16, 400.0000000000000000 ) ) ;
#131 = CARTESIAN_POINT ( 'NONE',  ( 0.000000000000000000, 0.000000000000000000, 0.000000000000000000 ) ) ;
#132 = EDGE_LOOP ( 'NONE', ( #20, #202 ) ) ;
#133 = COORDINATED_UNIVERSAL_TIME_OFFSET ( 1, 0, .AHEAD. ) ;
#134 = EDGE_LOOP ( 'NONE', ( #182, #46, #129, #95 ) ) ;
#135 = CC_DESIGN_PERSON_AND_ORGANIZATION_ASSIGNMENT ( #15, #171, ( #166 ) ) ;
#136 = CARTESIAN_POINT ( 'NONE',  ( 0.000000000000000000, 0.000000000000000000, 2.000000000000000000 ) ) ;
#137 = AXIS2_PLACEMENT_3D ( 'NONE', #158, #39, #183 ) ;
#138 = PRODUCT_DEFINITION_SHAPE ( 'NONE', 'NONE',  #218 ) ;
#139 = CARTESIAN_POINT ( 'NONE',  ( 2.000000000000000000, 2.449293598294706414E-16, 2.000000000000000000 ) ) ;
#140 = DIRECTION ( 'NONE',  ( 1.000000000000000000, 0.000000000000000000, 0.000000000000000000 ) ) ;
#141 = CARTESIAN_POINT ( 'NONE',  ( 0.000000000000000000, 0.000000000000000000, 2.000000000000000000 ) ) ;
#142 = AXIS2_PLACEMENT_3D ( 'NONE', #214, #36, #211 ) ;
#143 = CARTESIAN_POINT ( 'NONE',  ( 0.000000000000000000, 0.000000000000000000, 2.000000000000000000 ) ) ;
#144 = ORIENTED_EDGE ( 'NONE', *, *, #1, .T. ) ;
#145 = EDGE_CURVE ( 'NONE', #233, #58, #21, .T. ) ;
#146 = DIRECTION ( 'NONE',  ( 1.000000000000000000, 0.000000000000000000, -0.000000000000000000 ) ) ;
#147 = ORIENTED_EDGE ( 'NONE', *, *, #57, .T. ) ;
#148 = PERSON_AND_ORGANIZATION ( #42, #160 ) ;
#149 = VERTEX_POINT ( 'NONE', #181 ) ;
#150 = LOCAL_TIME ( 17, 41, 15.00000000000000000, #133 ) ;
#151 = DIRECTION ( 'NONE',  ( 0.000000000000000000, 0.000000000000000000, 1.000000000000000000 ) ) ;
#152 = CC_DESIGN_PERSON_AND_ORGANIZATION_ASSIGNMENT ( #148, #243, ( #176 ) ) ;
#153 = PERSON_AND_ORGANIZATION ( #42, #160 ) ;
#154 = PERSON_AND_ORGANIZATION_ROLE ( 'design_supplier' ) ;
#155 = APPROVAL_PERSON_ORGANIZATION ( #225, #37, #49 ) ;
#156 = COORDINATED_UNIVERSAL_TIME_OFFSET ( 1, 0, .AHEAD. ) ;
#157 = DIRECTION ( 'NONE',  ( -1.000000000000000000, 0.000000000000000000, 0.000000000000000000 ) ) ;
#158 = CARTESIAN_POINT ( 'NONE',  ( 0.000000000000000000, 0.000000000000000000, 2.000000000000000000 ) ) ;
#159 = PLANE ( 'NONE',  #254 ) ;
#160 = ORGANIZATION ( 'NEURÈENÝ', 'NEURÈENÝ', '' ) ;
#161 = DIRECTION ( 'NONE',  ( 0.000000000000000000, 0.000000000000000000, 1.000000000000000000 ) ) ;
#162 = ORIENTED_EDGE ( 'NONE', *, *, #1, .F. ) ;
#163 =( NAMED_UNIT ( * ) PLANE_ANGLE_UNIT ( ) SI_UNIT ( $, .RADIAN. ) );
#164 = VECTOR ( 'NONE', #74, 1000.000000000000000 ) ;
#165 = DESIGN_CONTEXT ( 'detailed design', #87, 'design' ) ;
#166 = SECURITY_CLASSIFICATION ( '', '', #29 ) ;
#167 = VERTEX_POINT ( 'NONE', #130 ) ;
#168 = CARTESIAN_POINT ( 'NONE',  ( -2.000000000000000000, 0.000000000000000000, 2.000000000000000000 ) ) ;
#169 = CARTESIAN_POINT ( 'NONE',  ( 0.000000000000000000, 0.000000000000000000, 2.000000000000000000 ) ) ;
#170 = CARTESIAN_POINT ( 'NONE',  ( 0.000000000000000000, 0.000000000000000000, 400.0000000000000000 ) ) ;
#171 = PERSON_AND_ORGANIZATION_ROLE ( 'classification_officer' ) ;
#172 = DIRECTION ( 'NONE',  ( 0.000000000000000000, 0.000000000000000000, 1.000000000000000000 ) ) ;
#173 = APPROVAL_DATE_TIME ( #86, #23 ) ;
#174 = DIRECTION ( 'NONE',  ( -1.000000000000000000, 0.000000000000000000, 0.000000000000000000 ) ) ;
#175 = DIRECTION ( 'NONE',  ( 1.000000000000000000, 0.000000000000000000, 0.000000000000000000 ) ) ;
#176 = PRODUCT ( 'e872', 'e872', '', ( #76 ) ) ;
#177 = LINE ( 'NONE', #213, #250 ) ;
#178 = AXIS2_PLACEMENT_3D ( 'NONE', #143, #99, #200 ) ;
#179 = EDGE_LOOP ( 'NONE', ( #4, #147 ) ) ;
#180 = CC_DESIGN_PERSON_AND_ORGANIZATION_ASSIGNMENT ( #193, #66, ( #40 ) ) ;
#181 = CARTESIAN_POINT ( 'NONE',  ( -1.100000000000000089, 0.000000000000000000, 400.0000000000000000 ) ) ;
#182 = ORIENTED_EDGE ( 'NONE', *, *, #57, .F. ) ;
#183 = DIRECTION ( 'NONE',  ( 1.000000000000000000, 0.000000000000000000, 0.000000000000000000 ) ) ;
#184 = APPLICATION_PROTOCOL_DEFINITION ( 'international standard', 'config_control_design', 1994, #9 ) ;
#185 = ORIENTED_EDGE ( 'NONE', *, *, #55, .T. ) ;
#186 = CARTESIAN_POINT ( 'NONE',  ( 1.100000000000000089, 1.347111479062088503E-16, 2.000000000000000000 ) ) ;
#187 = DATE_AND_TIME ( #222, #238 ) ;
#188 = DIRECTION ( 'NONE',  ( 1.000000000000000000, 0.000000000000000000, -0.000000000000000000 ) ) ;
#189 = APPROVAL_DATE_TIME ( #110, #37 ) ;
#190 = AXIS2_PLACEMENT_3D ( 'NONE', #131, #247, #16 ) ;
#191 = APPROVAL_ROLE ( '' ) ;
#192 = ORIENTED_EDGE ( 'NONE', *, *, #123, .F. ) ;
#193 = PERSON_AND_ORGANIZATION ( #42, #160 ) ;
#194 = DIRECTION ( 'NONE',  ( 1.000000000000000000, 0.000000000000000000, 0.000000000000000000 ) ) ;
#195 = AXIS2_PLACEMENT_3D ( 'NONE', #170, #12, #157 ) ;
#196 = MANIFOLD_SOLID_BREP ( 'Pøidat vysunutím3', #38 ) ;
#197 = ORIENTED_EDGE ( 'NONE', *, *, #205, .T. ) ;
#198 = CC_DESIGN_DATE_AND_TIME_ASSIGNMENT ( #251, #69, ( #218 ) ) ;
#199 = ADVANCED_BREP_SHAPE_REPRESENTATION ( 'e872', ( #196, #124 ), #102 ) ;
#200 = DIRECTION ( 'NONE',  ( 1.000000000000000000, 0.000000000000000000, 0.000000000000000000 ) ) ;
#201 = CARTESIAN_POINT ( 'NONE',  ( 2.000000000000000000, 2.449293598294706414E-16, 0.000000000000000000 ) ) ;
#202 = ORIENTED_EDGE ( 'NONE', *, *, #41, .F. ) ;
#203 = PLANE ( 'NONE',  #68 ) ;
#204 = CARTESIAN_POINT ( 'NONE',  ( -2.000000000000000000, 0.000000000000000000, 0.000000000000000000 ) ) ;
#205 = EDGE_CURVE ( 'NONE', #149, #167, #52, .T. ) ;
#206 = APPROVAL_STATUS ( 'not_yet_approved' ) ;
#207 = APPROVAL_ROLE ( '' ) ;
#208 = COORDINATED_UNIVERSAL_TIME_OFFSET ( 1, 0, .AHEAD. ) ;
#209 = EDGE_LOOP ( 'NONE', ( #120, #216, #104, #17 ) ) ;
#210 = APPROVAL_PERSON_ORGANIZATION ( #111, #44, #191 ) ;
#211 = DIRECTION ( 'NONE',  ( -1.000000000000000000, 0.000000000000000000, 0.000000000000000000 ) ) ;
#212 = CIRCLE ( 'NONE', #100, 1.100000000000000089 ) ;
#213 = CARTESIAN_POINT ( 'NONE',  ( 1.100000000000000089, 1.347111479062088503E-16, 400.0000000000000000 ) ) ;
#214 = CARTESIAN_POINT ( 'NONE',  ( 0.000000000000000000, 0.000000000000000000, 400.0000000000000000 ) ) ;
#215 = VERTEX_POINT ( 'NONE', #186 ) ;
#216 = ORIENTED_EDGE ( 'NONE', *, *, #145, .F. ) ;
#217 = CC_DESIGN_APPROVAL ( #37, ( #166 ) ) ;
#218 = PRODUCT_DEFINITION ( 'NEZNÁMÝ', '', #40, #165 ) ;
#219 = PERSON_AND_ORGANIZATION ( #42, #160 ) ;
#220 = FACE_OUTER_BOUND ( 'NONE', #94, .T. ) ;
#221 = DIRECTION ( 'NONE',  ( -1.000000000000000000, 0.000000000000000000, 0.000000000000000000 ) ) ;
#222 = CALENDAR_DATE ( 2023, 13, 2 ) ;
#223 = SHAPE_DEFINITION_REPRESENTATION ( #138, #199 ) ;
#224 = CALENDAR_DATE ( 2023, 13, 2 ) ;
#225 = PERSON_AND_ORGANIZATION ( #42, #160 ) ;
#226 = APPROVAL_STATUS ( 'not_yet_approved' ) ;
#227 = CARTESIAN_POINT ( 'NONE',  ( 0.000000000000000000, 0.000000000000000000, 2.000000000000000000 ) ) ;
#228 = CARTESIAN_POINT ( 'NONE',  ( 0.000000000000000000, 0.000000000000000000, 2.000000000000000000 ) ) ;
#229 = DIRECTION ( 'NONE',  ( -0.000000000000000000, -0.000000000000000000, -1.000000000000000000 ) ) ;
#230 = FACE_OUTER_BOUND ( 'NONE', #179, .T. ) ;
#231 = CC_DESIGN_APPROVAL ( #23, ( #218 ) ) ;
#232 = CC_DESIGN_PERSON_AND_ORGANIZATION_ASSIGNMENT ( #153, #154, ( #40 ) ) ;
#233 = VERTEX_POINT ( 'NONE', #107 ) ;
#234 = CARTESIAN_POINT ( 'NONE',  ( 0.000000000000000000, 0.000000000000000000, 0.000000000000000000 ) ) ;
#235 = UNCERTAINTY_MEASURE_WITH_UNIT (LENGTH_MEASURE( 1.000000000000000082E-05 ), #91, 'distance_accuracy_value', 'NONE');
#236 = ADVANCED_FACE ( 'NONE', ( #13 ), #84, .T. ) ;
#237 = AXIS2_PLACEMENT_3D ( 'NONE', #169, #43, #221 ) ;
#238 = LOCAL_TIME ( 17, 41, 15.00000000000000000, #248 ) ;
#239 = ADVANCED_FACE ( 'NONE', ( #101, #230 ), #51, .T. ) ;
#240 = DIRECTION ( 'NONE',  ( 1.000000000000000000, 0.000000000000000000, 0.000000000000000000 ) ) ;
#241 = CIRCLE ( 'NONE', #137, 1.100000000000000089 ) ;
#242 = AXIS2_PLACEMENT_3D ( 'NONE', #227, #229, #174 ) ;
#243 = PERSON_AND_ORGANIZATION_ROLE ( 'design_owner' ) ;
#244 = LINE ( 'NONE', #63, #65 ) ;
#245 = CC_DESIGN_SECURITY_CLASSIFICATION ( #166, ( #40 ) ) ;
#246 = DIRECTION ( 'NONE',  ( 0.000000000000000000, 0.000000000000000000, 1.000000000000000000 ) ) ;
#247 = DIRECTION ( 'NONE',  ( 0.000000000000000000, 0.000000000000000000, 1.000000000000000000 ) ) ;
#248 = COORDINATED_UNIVERSAL_TIME_OFFSET ( 1, 0, .AHEAD. ) ;
#249 = CALENDAR_DATE ( 2023, 13, 2 ) ;
#250 = VECTOR ( 'NONE', #53, 1000.000000000000000 ) ;
#251 = DATE_AND_TIME ( #224, #119 ) ;
#252 = FACE_OUTER_BOUND ( 'NONE', #134, .T. ) ;
#253 = APPROVAL_STATUS ( 'not_yet_approved' ) ;
#254 = AXIS2_PLACEMENT_3D ( 'NONE', #234, #151, #188 ) ;
#255 = CIRCLE ( 'NONE', #28, 2.000000000000000000 ) ;
ENDSEC;
END-ISO-10303-21;
