ISO-10303-21;
HEADER;
FILE_DESCRIPTION (( 'STEP AP203' ),
    '1' );
FILE_NAME ('5b6a.STEP',
    '2023-02-13T16:08:13',
    ( '' ),
    ( '' ),
    'SwSTEP 2.0',
    'SolidWorks 2019',
    '' );
FILE_SCHEMA (( 'CONFIG_CONTROL_DESIGN' ));
ENDSEC;

DATA;
#1 = APPROVAL_ROLE ( '' ) ;
#2 = CC_DESIGN_PERSON_AND_ORGANIZATION_ASSIGNMENT ( #127, #7, ( #111 ) ) ;
#3 = APPLICATION_PROTOCOL_DEFINITION ( 'international standard', 'config_control_design', 1994, #32 ) ;
#4 = PERSON_AND_ORGANIZATION ( #45, #211 ) ;
#5 = MECHANICAL_CONTEXT ( 'NONE', #32, 'mechanical' ) ;
#6 = VERTEX_POINT ( 'NONE', #248 ) ;
#7 = PERSON_AND_ORGANIZATION_ROLE ( 'design_owner' ) ;
#8 = PRODUCT_DEFINITION ( 'NEZNÁMÝ', '', #37, #117 ) ;
#9 = CC_DESIGN_APPROVAL ( #155, ( #89 ) ) ;
#10 = CC_DESIGN_DATE_AND_TIME_ASSIGNMENT ( #119, #216, ( #89 ) ) ;
#11 = ORIENTED_EDGE ( 'NONE', *, *, #73, .T. ) ;
#12 = DIRECTION ( 'NONE',  ( 1.000000000000000000, 0.000000000000000000, 0.000000000000000000 ) ) ;
#13 = EDGE_LOOP ( 'NONE', ( #192, #25 ) ) ;
#14 = CIRCLE ( 'NONE', #162, 2.100000000000000089 ) ;
#15 = ORIENTED_EDGE ( 'NONE', *, *, #44, .F. ) ;
#16 = ORIENTED_EDGE ( 'NONE', *, *, #189, .F. ) ;
#17 = DIRECTION ( 'NONE',  ( -0.000000000000000000, -0.000000000000000000, -1.000000000000000000 ) ) ;
#18 = DIRECTION ( 'NONE',  ( -0.000000000000000000, -0.000000000000000000, -1.000000000000000000 ) ) ;
#19 = COORDINATED_UNIVERSAL_TIME_OFFSET ( 1, 0, .AHEAD. ) ;
#20 = CIRCLE ( 'NONE', #133, 4.000000000000000000 ) ;
#21 = APPROVAL_ROLE ( '' ) ;
#22 = ORIENTED_EDGE ( 'NONE', *, *, #189, .T. ) ;
#23 = CALENDAR_DATE ( 2023, 13, 2 ) ;
#24 = APPROVAL_STATUS ( 'not_yet_approved' ) ;
#25 = ORIENTED_EDGE ( 'NONE', *, *, #93, .T. ) ;
#26 = ORIENTED_EDGE ( 'NONE', *, *, #174, .T. ) ;
#27 = EDGE_CURVE ( 'NONE', #94, #227, #75, .T. ) ;
#28 = ORIENTED_EDGE ( 'NONE', *, *, #159, .T. ) ;
#29 = DIRECTION ( 'NONE',  ( -0.000000000000000000, -0.000000000000000000, -1.000000000000000000 ) ) ;
#30 = AXIS2_PLACEMENT_3D ( 'NONE', #252, #43, #179 ) ;
#31 = CARTESIAN_POINT ( 'NONE',  ( 0.000000000000000000, 0.000000000000000000, 3.000000000000000000 ) ) ;
#32 = APPLICATION_CONTEXT ( 'configuration controlled 3d designs of mechanical parts and assemblies' ) ;
#33 = CARTESIAN_POINT ( 'NONE',  ( 2.100000000000000089, 2.571758278209441957E-16, 250.0000000000000000 ) ) ;
#34 = ADVANCED_FACE ( 'NONE', ( #57 ), #69, .T. ) ;
#35 = DIRECTION ( 'NONE',  ( -1.000000000000000000, 0.000000000000000000, 0.000000000000000000 ) ) ;
#36 = CARTESIAN_POINT ( 'NONE',  ( 4.000000000000000000, 4.898587196589412829E-16, 0.000000000000000000 ) ) ;
#37 = PRODUCT_DEFINITION_FORMATION_WITH_SPECIFIED_SOURCE ( 'LIBOVOLNÝ', '', #111, .NOT_KNOWN. ) ;
#38 = ADVANCED_BREP_SHAPE_REPRESENTATION ( '5b6a', ( #129, #254 ), #68 ) ;
#39 = CARTESIAN_POINT ( 'NONE',  ( -2.100000000000000089, 0.000000000000000000, 250.0000000000000000 ) ) ;
#40 = DIRECTION ( 'NONE',  ( 1.000000000000000000, 0.000000000000000000, 0.000000000000000000 ) ) ;
#41 = DIRECTION ( 'NONE',  ( 0.000000000000000000, 0.000000000000000000, 1.000000000000000000 ) ) ;
#42 = APPROVAL_STATUS ( 'not_yet_approved' ) ;
#43 = DIRECTION ( 'NONE',  ( -0.000000000000000000, -0.000000000000000000, -1.000000000000000000 ) ) ;
#44 = EDGE_CURVE ( 'NONE', #227, #94, #14, .T. ) ;
#45 = PERSON ( 'NEURÈENÝ', 'NEURÈENÝ', 'NEURÈENÝ', ('NEURÈENÝ'), ('NEURÈENÝ'), ('NEURÈENÝ') ) ;
#46 = DATE_TIME_ROLE ( 'creation_date' ) ;
#47 = COORDINATED_UNIVERSAL_TIME_OFFSET ( 1, 0, .AHEAD. ) ;
#48 = DIRECTION ( 'NONE',  ( 0.000000000000000000, 0.000000000000000000, 1.000000000000000000 ) ) ;
#49 = APPLICATION_CONTEXT ( 'configuration controlled 3d designs of mechanical parts and assemblies' ) ;
#50 = ADVANCED_FACE ( 'NONE', ( #91 ), #55, .T. ) ;
#51 = ORIENTED_EDGE ( 'NONE', *, *, #44, .T. ) ;
#52 = CIRCLE ( 'NONE', #80, 4.000000000000000000 ) ;
#53 = EDGE_LOOP ( 'NONE', ( #207, #11, #26, #56 ) ) ;
#54 = EDGE_CURVE ( 'NONE', #249, #209, #52, .T. ) ;
#55 = PLANE ( 'NONE',  #218 ) ;
#56 = ORIENTED_EDGE ( 'NONE', *, *, #191, .F. ) ;
#57 = FACE_OUTER_BOUND ( 'NONE', #168, .T. ) ;
#58 = CARTESIAN_POINT ( 'NONE',  ( -2.100000000000000089, 0.000000000000000000, 250.0000000000000000 ) ) ;
#59 = DIRECTION ( 'NONE',  ( 0.000000000000000000, 0.000000000000000000, 1.000000000000000000 ) ) ;
#60 = AXIS2_PLACEMENT_3D ( 'NONE', #228, #134, #35 ) ;
#61 = DIRECTION ( 'NONE',  ( -1.000000000000000000, 0.000000000000000000, 0.000000000000000000 ) ) ;
#62 = APPROVAL_DATE_TIME ( #205, #178 ) ;
#63 = SECURITY_CLASSIFICATION_LEVEL ( 'unclassified' ) ;
#64 = EDGE_LOOP ( 'NONE', ( #226, #15, #86, #194 ) ) ;
#65 = CC_DESIGN_DATE_AND_TIME_ASSIGNMENT ( #84, #46, ( #8 ) ) ;
#66 = DIRECTION ( 'NONE',  ( 1.000000000000000000, 0.000000000000000000, 0.000000000000000000 ) ) ;
#67 = ORIENTED_EDGE ( 'NONE', *, *, #54, .T. ) ;
#68 =( GEOMETRIC_REPRESENTATION_CONTEXT ( 3 ) GLOBAL_UNCERTAINTY_ASSIGNED_CONTEXT ( ( #245 ) ) GLOBAL_UNIT_ASSIGNED_CONTEXT ( ( #201, #98, #100 ) ) REPRESENTATION_CONTEXT ( 'NONE', 'WORKASPACE' ) );
#69 = CYLINDRICAL_SURFACE ( 'NONE', #149, 4.000000000000000000 ) ;
#70 = CARTESIAN_POINT ( 'NONE',  ( 4.000000000000000000, 4.898587196589412829E-16, 3.000000000000000000 ) ) ;
#71 = DIRECTION ( 'NONE',  ( 1.000000000000000000, 0.000000000000000000, 0.000000000000000000 ) ) ;
#72 = EDGE_LOOP ( 'NONE', ( #146, #28, #22, #110 ) ) ;
#73 = EDGE_CURVE ( 'NONE', #6, #209, #246, .T. ) ;
#74 = ORIENTED_EDGE ( 'NONE', *, *, #27, .T. ) ;
#75 = CIRCLE ( 'NONE', #190, 2.100000000000000089 ) ;
#76 = DATE_AND_TIME ( #99, #116 ) ;
#77 = FACE_OUTER_BOUND ( 'NONE', #64, .T. ) ;
#78 = CARTESIAN_POINT ( 'NONE',  ( 0.000000000000000000, 0.000000000000000000, 250.0000000000000000 ) ) ;
#79 = FACE_OUTER_BOUND ( 'NONE', #53, .T. ) ;
#80 = AXIS2_PLACEMENT_3D ( 'NONE', #90, #172, #71 ) ;
#81 = CARTESIAN_POINT ( 'NONE',  ( 0.000000000000000000, 0.000000000000000000, 0.000000000000000000 ) ) ;
#82 = VECTOR ( 'NONE', #18, 1000.000000000000000 ) ;
#83 = CALENDAR_DATE ( 2023, 13, 2 ) ;
#84 = DATE_AND_TIME ( #83, #243 ) ;
#85 = VECTOR ( 'NONE', #17, 1000.000000000000000 ) ;
#86 = ORIENTED_EDGE ( 'NONE', *, *, #139, .T. ) ;
#87 = CC_DESIGN_APPROVAL ( #178, ( #8 ) ) ;
#88 = EDGE_LOOP ( 'NONE', ( #51, #74 ) ) ;
#89 = SECURITY_CLASSIFICATION ( '', '', #63 ) ;
#90 = CARTESIAN_POINT ( 'NONE',  ( 0.000000000000000000, 0.000000000000000000, 0.000000000000000000 ) ) ;
#91 = FACE_OUTER_BOUND ( 'NONE', #88, .T. ) ;
#92 = ORIENTED_EDGE ( 'NONE', *, *, #73, .F. ) ;
#93 = EDGE_CURVE ( 'NONE', #6, #170, #251, .T. ) ;
#94 = VERTEX_POINT ( 'NONE', #33 ) ;
#95 = DIRECTION ( 'NONE',  ( 1.000000000000000000, 0.000000000000000000, 0.000000000000000000 ) ) ;
#96 = CARTESIAN_POINT ( 'NONE',  ( 0.000000000000000000, 0.000000000000000000, 0.000000000000000000 ) ) ;
#97 = LOCAL_TIME ( 17, 8, 13.00000000000000000, #47 ) ;
#98 =( NAMED_UNIT ( * ) PLANE_ANGLE_UNIT ( ) SI_UNIT ( $, .RADIAN. ) );
#99 = CALENDAR_DATE ( 2023, 13, 2 ) ;
#100 =( NAMED_UNIT ( * ) SI_UNIT ( $, .STERADIAN. ) SOLID_ANGLE_UNIT ( ) );
#101 = AXIS2_PLACEMENT_3D ( 'NONE', #236, #214, #121 ) ;
#102 = ADVANCED_FACE ( 'NONE', ( #198 ), #230, .T. ) ;
#103 = PERSON_AND_ORGANIZATION_ROLE ( 'creator' ) ;
#104 = AXIS2_PLACEMENT_3D ( 'NONE', #163, #164, #136 ) ;
#105 = PERSON_AND_ORGANIZATION ( #45, #211 ) ;
#106 = PERSON_AND_ORGANIZATION ( #45, #211 ) ;
#107 = ORIENTED_EDGE ( 'NONE', *, *, #174, .F. ) ;
#108 = VERTEX_POINT ( 'NONE', #157 ) ;
#109 = VECTOR ( 'NONE', #132, 1000.000000000000000 ) ;
#110 = ORIENTED_EDGE ( 'NONE', *, *, #139, .F. ) ;
#111 = PRODUCT ( '5b6a', '5b6a', '', ( #5 ) ) ;
#112 = AXIS2_PLACEMENT_3D ( 'NONE', #78, #124, #61 ) ;
#113 = ORIENTED_EDGE ( 'NONE', *, *, #54, .F. ) ;
#114 = DIRECTION ( 'NONE',  ( -1.000000000000000000, 0.000000000000000000, 0.000000000000000000 ) ) ;
#115 = DIRECTION ( 'NONE',  ( 0.000000000000000000, 0.000000000000000000, 1.000000000000000000 ) ) ;
#116 = LOCAL_TIME ( 17, 8, 13.00000000000000000, #140 ) ;
#117 = DESIGN_CONTEXT ( 'detailed design', #49, 'design' ) ;
#118 = DIRECTION ( 'NONE',  ( 1.000000000000000000, 0.000000000000000000, -0.000000000000000000 ) ) ;
#119 = DATE_AND_TIME ( #184, #154 ) ;
#120 = CC_DESIGN_PERSON_AND_ORGANIZATION_ASSIGNMENT ( #222, #103, ( #8 ) ) ;
#121 = DIRECTION ( 'NONE',  ( 1.000000000000000000, 0.000000000000000000, -0.000000000000000000 ) ) ;
#122 = CC_DESIGN_APPROVAL ( #167, ( #37 ) ) ;
#123 = PERSON_AND_ORGANIZATION_ROLE ( 'classification_officer' ) ;
#124 = DIRECTION ( 'NONE',  ( -0.000000000000000000, -0.000000000000000000, -1.000000000000000000 ) ) ;
#125 = CC_DESIGN_PERSON_AND_ORGANIZATION_ASSIGNMENT ( #223, #123, ( #89 ) ) ;
#126 = CALENDAR_DATE ( 2023, 13, 2 ) ;
#127 = PERSON_AND_ORGANIZATION ( #45, #211 ) ;
#128 = APPROVAL_PERSON_ORGANIZATION ( #4, #155, #1 ) ;
#129 = MANIFOLD_SOLID_BREP ( 'Pøidat vysunutím3', #193 ) ;
#130 = ADVANCED_FACE ( 'NONE', ( #231 ), #208, .F. ) ;
#131 = DIRECTION ( 'NONE',  ( 0.000000000000000000, 0.000000000000000000, 1.000000000000000000 ) ) ;
#132 = DIRECTION ( 'NONE',  ( -0.000000000000000000, -0.000000000000000000, -1.000000000000000000 ) ) ;
#133 = AXIS2_PLACEMENT_3D ( 'NONE', #96, #59, #217 ) ;
#134 = DIRECTION ( 'NONE',  ( -0.000000000000000000, -0.000000000000000000, -1.000000000000000000 ) ) ;
#135 = VECTOR ( 'NONE', #220, 1000.000000000000000 ) ;
#136 = DIRECTION ( 'NONE',  ( 1.000000000000000000, 0.000000000000000000, 0.000000000000000000 ) ) ;
#137 = CC_DESIGN_SECURITY_CLASSIFICATION ( #89, ( #37 ) ) ;
#138 = CARTESIAN_POINT ( 'NONE',  ( 2.100000000000000089, 2.571758278209441957E-16, 250.0000000000000000 ) ) ;
#139 = EDGE_CURVE ( 'NONE', #227, #108, #232, .T. ) ;
#140 = COORDINATED_UNIVERSAL_TIME_OFFSET ( 1, 0, .AHEAD. ) ;
#141 = CARTESIAN_POINT ( 'NONE',  ( 0.000000000000000000, 0.000000000000000000, 3.000000000000000000 ) ) ;
#142 = CARTESIAN_POINT ( 'NONE',  ( -4.000000000000000000, 0.000000000000000000, 3.000000000000000000 ) ) ;
#143 = APPROVAL_ROLE ( '' ) ;
#144 = DATE_AND_TIME ( #126, #240 ) ;
#145 = AXIS2_PLACEMENT_3D ( 'NONE', #81, #41, #118 ) ;
#146 = ORIENTED_EDGE ( 'NONE', *, *, #27, .F. ) ;
#147 = APPROVAL_STATUS ( 'not_yet_approved' ) ;
#148 = ADVANCED_FACE ( 'NONE', ( #161, #234 ), #235, .T. ) ;
#149 = AXIS2_PLACEMENT_3D ( 'NONE', #175, #29, #114 ) ;
#150 = PRODUCT_RELATED_PRODUCT_CATEGORY ( 'detail', '', ( #111 ) ) ;
#151 = CARTESIAN_POINT ( 'NONE',  ( 0.000000000000000000, 0.000000000000000000, 250.0000000000000000 ) ) ;
#152 = DIRECTION ( 'NONE',  ( 1.000000000000000000, 0.000000000000000000, -0.000000000000000000 ) ) ;
#153 = DIRECTION ( 'NONE',  ( 0.000000000000000000, 0.000000000000000000, 1.000000000000000000 ) ) ;
#154 = LOCAL_TIME ( 17, 8, 13.00000000000000000, #19 ) ;
#155 = APPROVAL ( #42, 'NEURÈENÝ' ) ;
#156 = ORIENTED_EDGE ( 'NONE', *, *, #219, .F. ) ;
#157 = CARTESIAN_POINT ( 'NONE',  ( -2.100000000000000089, 0.000000000000000000, 3.000000000000000000 ) ) ;
#158 = CARTESIAN_POINT ( 'NONE',  ( 0.000000000000000000, 0.000000000000000000, 0.000000000000000000 ) ) ;
#159 = EDGE_CURVE ( 'NONE', #94, #213, #200, .T. ) ;
#160 = SHAPE_DEFINITION_REPRESENTATION ( #176, #38 ) ;
#161 = FACE_BOUND ( 'NONE', #196, .T. ) ;
#162 = AXIS2_PLACEMENT_3D ( 'NONE', #247, #115, #212 ) ;
#163 = CARTESIAN_POINT ( 'NONE',  ( 0.000000000000000000, 0.000000000000000000, 3.000000000000000000 ) ) ;
#164 = DIRECTION ( 'NONE',  ( 0.000000000000000000, 0.000000000000000000, 1.000000000000000000 ) ) ;
#165 = COORDINATED_UNIVERSAL_TIME_OFFSET ( 1, 0, .AHEAD. ) ;
#166 = PERSON_AND_ORGANIZATION ( #45, #211 ) ;
#167 = APPROVAL ( #147, 'NEURÈENÝ' ) ;
#168 = EDGE_LOOP ( 'NONE', ( #92, #156, #210, #67 ) ) ;
#169 = CC_DESIGN_PERSON_AND_ORGANIZATION_ASSIGNMENT ( #106, #239, ( #37 ) ) ;
#170 = VERTEX_POINT ( 'NONE', #142 ) ;
#171 = AXIS2_PLACEMENT_3D ( 'NONE', #141, #250, #40 ) ;
#172 = DIRECTION ( 'NONE',  ( 0.000000000000000000, 0.000000000000000000, 1.000000000000000000 ) ) ;
#173 = DIRECTION ( 'NONE',  ( 1.000000000000000000, 0.000000000000000000, 0.000000000000000000 ) ) ;
#174 = EDGE_CURVE ( 'NONE', #209, #249, #20, .T. ) ;
#175 = CARTESIAN_POINT ( 'NONE',  ( 0.000000000000000000, 0.000000000000000000, 3.000000000000000000 ) ) ;
#176 = PRODUCT_DEFINITION_SHAPE ( 'NONE', 'NONE',  #8 ) ;
#177 = CARTESIAN_POINT ( 'NONE',  ( 0.000000000000000000, 0.000000000000000000, 250.0000000000000000 ) ) ;
#178 = APPROVAL ( #24, 'NEURÈENÝ' ) ;
#179 = DIRECTION ( 'NONE',  ( -1.000000000000000000, 0.000000000000000000, 0.000000000000000000 ) ) ;
#180 = DIRECTION ( 'NONE',  ( 0.000000000000000000, 0.000000000000000000, 1.000000000000000000 ) ) ;
#181 = CIRCLE ( 'NONE', #186, 2.100000000000000089 ) ;
#182 = CARTESIAN_POINT ( 'NONE',  ( 2.100000000000000089, 2.571758278209441957E-16, 3.000000000000000000 ) ) ;
#183 = CYLINDRICAL_SURFACE ( 'NONE', #112, 2.100000000000000089 ) ;
#184 = CALENDAR_DATE ( 2023, 13, 2 ) ;
#185 = AXIS2_PLACEMENT_3D ( 'NONE', #31, #153, #173 ) ;
#186 = AXIS2_PLACEMENT_3D ( 'NONE', #215, #180, #95 ) ;
#187 = PERSON_AND_ORGANIZATION_ROLE ( 'creator' ) ;
#188 = APPLICATION_PROTOCOL_DEFINITION ( 'international standard', 'config_control_design', 1994, #49 ) ;
#189 = EDGE_CURVE ( 'NONE', #213, #108, #224, .T. ) ;
#190 = AXIS2_PLACEMENT_3D ( 'NONE', #177, #197, #12 ) ;
#191 = EDGE_CURVE ( 'NONE', #170, #249, #233, .T. ) ;
#192 = ORIENTED_EDGE ( 'NONE', *, *, #219, .T. ) ;
#193 = CLOSED_SHELL ( 'NONE', ( #102, #242, #34, #148, #130, #253, #50 ) ) ;
#194 = ORIENTED_EDGE ( 'NONE', *, *, #237, .T. ) ;
#195 = CIRCLE ( 'NONE', #104, 4.000000000000000000 ) ;
#196 = EDGE_LOOP ( 'NONE', ( #244, #16 ) ) ;
#197 = DIRECTION ( 'NONE',  ( 0.000000000000000000, 0.000000000000000000, 1.000000000000000000 ) ) ;
#198 = FACE_OUTER_BOUND ( 'NONE', #72, .T. ) ;
#199 = CC_DESIGN_PERSON_AND_ORGANIZATION_ASSIGNMENT ( #225, #187, ( #37 ) ) ;
#200 = LINE ( 'NONE', #138, #135 ) ;
#201 =( LENGTH_UNIT ( ) NAMED_UNIT ( * ) SI_UNIT ( .MILLI., .METRE. ) );
#202 = APPROVAL_PERSON_ORGANIZATION ( #105, #178, #143 ) ;
#203 = CARTESIAN_POINT ( 'NONE',  ( -4.000000000000000000, 0.000000000000000000, 3.000000000000000000 ) ) ;
#204 = APPROVAL_DATE_TIME ( #144, #167 ) ;
#205 = DATE_AND_TIME ( #23, #97 ) ;
#206 = COORDINATED_UNIVERSAL_TIME_OFFSET ( 1, 0, .AHEAD. ) ;
#207 = ORIENTED_EDGE ( 'NONE', *, *, #93, .F. ) ;
#208 = PLANE ( 'NONE',  #145 ) ;
#209 = VERTEX_POINT ( 'NONE', #36 ) ;
#210 = ORIENTED_EDGE ( 'NONE', *, *, #191, .T. ) ;
#211 = ORGANIZATION ( 'NEURÈENÝ', 'NEURÈENÝ', '' ) ;
#212 = DIRECTION ( 'NONE',  ( 1.000000000000000000, 0.000000000000000000, 0.000000000000000000 ) ) ;
#213 = VERTEX_POINT ( 'NONE', #182 ) ;
#214 = DIRECTION ( 'NONE',  ( 0.000000000000000000, 0.000000000000000000, 1.000000000000000000 ) ) ;
#215 = CARTESIAN_POINT ( 'NONE',  ( 0.000000000000000000, 0.000000000000000000, 3.000000000000000000 ) ) ;
#216 = DATE_TIME_ROLE ( 'classification_date' ) ;
#217 = DIRECTION ( 'NONE',  ( 1.000000000000000000, 0.000000000000000000, 0.000000000000000000 ) ) ;
#218 = AXIS2_PLACEMENT_3D ( 'NONE', #151, #131, #152 ) ;
#219 = EDGE_CURVE ( 'NONE', #170, #6, #195, .T. ) ;
#220 = DIRECTION ( 'NONE',  ( -0.000000000000000000, -0.000000000000000000, -1.000000000000000000 ) ) ;
#221 = CYLINDRICAL_SURFACE ( 'NONE', #30, 4.000000000000000000 ) ;
#222 = PERSON_AND_ORGANIZATION ( #45, #211 ) ;
#223 = PERSON_AND_ORGANIZATION ( #45, #211 ) ;
#224 = CIRCLE ( 'NONE', #171, 2.100000000000000089 ) ;
#225 = PERSON_AND_ORGANIZATION ( #45, #211 ) ;
#226 = ORIENTED_EDGE ( 'NONE', *, *, #159, .F. ) ;
#227 = VERTEX_POINT ( 'NONE', #58 ) ;
#228 = CARTESIAN_POINT ( 'NONE',  ( 0.000000000000000000, 0.000000000000000000, 250.0000000000000000 ) ) ;
#229 = APPROVAL_PERSON_ORGANIZATION ( #166, #167, #21 ) ;
#230 = CYLINDRICAL_SURFACE ( 'NONE', #60, 2.100000000000000089 ) ;
#231 = FACE_OUTER_BOUND ( 'NONE', #241, .T. ) ;
#232 = LINE ( 'NONE', #39, #85 ) ;
#233 = LINE ( 'NONE', #203, #82 ) ;
#234 = FACE_OUTER_BOUND ( 'NONE', #13, .T. ) ;
#235 = PLANE ( 'NONE',  #101 ) ;
#236 = CARTESIAN_POINT ( 'NONE',  ( 0.000000000000000000, 0.000000000000000000, 3.000000000000000000 ) ) ;
#237 = EDGE_CURVE ( 'NONE', #108, #213, #181, .T. ) ;
#238 = APPROVAL_DATE_TIME ( #76, #155 ) ;
#239 = PERSON_AND_ORGANIZATION_ROLE ( 'design_supplier' ) ;
#240 = LOCAL_TIME ( 17, 8, 13.00000000000000000, #165 ) ;
#241 = EDGE_LOOP ( 'NONE', ( #113, #107 ) ) ;
#242 = ADVANCED_FACE ( 'NONE', ( #79 ), #221, .T. ) ;
#243 = LOCAL_TIME ( 17, 8, 13.00000000000000000, #206 ) ;
#244 = ORIENTED_EDGE ( 'NONE', *, *, #237, .F. ) ;
#245 = UNCERTAINTY_MEASURE_WITH_UNIT (LENGTH_MEASURE( 1.000000000000000082E-05 ), #201, 'distance_accuracy_value', 'NONE');
#246 = LINE ( 'NONE', #70, #109 ) ;
#247 = CARTESIAN_POINT ( 'NONE',  ( 0.000000000000000000, 0.000000000000000000, 250.0000000000000000 ) ) ;
#248 = CARTESIAN_POINT ( 'NONE',  ( 4.000000000000000000, 4.898587196589412829E-16, 3.000000000000000000 ) ) ;
#249 = VERTEX_POINT ( 'NONE', #255 ) ;
#250 = DIRECTION ( 'NONE',  ( 0.000000000000000000, 0.000000000000000000, 1.000000000000000000 ) ) ;
#251 = CIRCLE ( 'NONE', #185, 4.000000000000000000 ) ;
#252 = CARTESIAN_POINT ( 'NONE',  ( 0.000000000000000000, 0.000000000000000000, 3.000000000000000000 ) ) ;
#253 = ADVANCED_FACE ( 'NONE', ( #77 ), #183, .T. ) ;
#254 = AXIS2_PLACEMENT_3D ( 'NONE', #158, #48, #66 ) ;
#255 = CARTESIAN_POINT ( 'NONE',  ( -4.000000000000000000, 0.000000000000000000, 0.000000000000000000 ) ) ;
ENDSEC;
END-ISO-10303-21;
