ISO-10303-21;
HEADER;
FILE_DESCRIPTION (( 'STEP AP203' ),
    '1' );
FILE_NAME ('2892.STEP',
    '2023-02-13T14:53:49',
    ( '' ),
    ( '' ),
    'SwSTEP 2.0',
    'SolidWorks 2019',
    '' );
FILE_SCHEMA (( 'CONFIG_CONTROL_DESIGN' ));
ENDSEC;

DATA;
#1 = APPROVAL_PERSON_ORGANIZATION ( #125, #150, #51 ) ;
#2 = PERSON_AND_ORGANIZATION_ROLE ( 'classification_officer' ) ;
#3 = DIRECTION ( 'NONE',  ( 1.000000000000000000, 0.000000000000000000, 0.000000000000000000 ) ) ;
#4 = ADVANCED_BREP_SHAPE_REPRESENTATION ( '2892', ( #251, #108 ), #91 ) ;
#5 = DIRECTION ( 'NONE',  ( 1.000000000000000000, 0.000000000000000000, 0.000000000000000000 ) ) ;
#6 = CC_DESIGN_PERSON_AND_ORGANIZATION_ASSIGNMENT ( #175, #195, ( #178 ) ) ;
#7 = DATE_TIME_ROLE ( 'classification_date' ) ;
#8 = EDGE_LOOP ( 'NONE', ( #80, #200, #183, #83 ) ) ;
#9 = CALENDAR_DATE ( 2023, 13, 2 ) ;
#10 = VERTEX_POINT ( 'NONE', #238 ) ;
#11 = COORDINATED_UNIVERSAL_TIME_OFFSET ( 1, 0, .AHEAD. ) ;
#12 = EDGE_CURVE ( 'NONE', #206, #28, #90, .T. ) ;
#13 = PERSON_AND_ORGANIZATION ( #62, #45 ) ;
#14 = CARTESIAN_POINT ( 'NONE',  ( -3.250000000000000444, 0.000000000000000000, 5.000000000000000000 ) ) ;
#15 = DIRECTION ( 'NONE',  ( 0.000000000000000000, 0.000000000000000000, 1.000000000000000000 ) ) ;
#16 = LINE ( 'NONE', #249, #254 ) ;
#17 = CARTESIAN_POINT ( 'NONE',  ( -6.000000000000000888, 0.000000000000000000, 5.000000000000000000 ) ) ;
#18 = SECURITY_CLASSIFICATION_LEVEL ( 'unclassified' ) ;
#19 = APPROVAL ( #25, 'NEURÈENÝ' ) ;
#20 = CIRCLE ( 'NONE', #201, 6.000000000000000888 ) ;
#21 = EDGE_LOOP ( 'NONE', ( #141, #163, #105, #236 ) ) ;
#22 = EDGE_CURVE ( 'NONE', #10, #126, #144, .T. ) ;
#23 = VECTOR ( 'NONE', #67, 1000.000000000000000 ) ;
#24 = FACE_OUTER_BOUND ( 'NONE', #21, .T. ) ;
#25 = APPROVAL_STATUS ( 'not_yet_approved' ) ;
#26 = CARTESIAN_POINT ( 'NONE',  ( 0.000000000000000000, 0.000000000000000000, 5.000000000000000000 ) ) ;
#27 = EDGE_CURVE ( 'NONE', #28, #206, #237, .T. ) ;
#28 = VERTEX_POINT ( 'NONE', #14 ) ;
#29 = PERSON_AND_ORGANIZATION_ROLE ( 'design_owner' ) ;
#30 = LOCAL_TIME ( 15, 53, 49.00000000000000000, #103 ) ;
#31 = CARTESIAN_POINT ( 'NONE',  ( 0.000000000000000000, 0.000000000000000000, 0.000000000000000000 ) ) ;
#32 = APPROVAL_DATE_TIME ( #132, #150 ) ;
#33 = DIRECTION ( 'NONE',  ( 1.000000000000000000, 0.000000000000000000, 0.000000000000000000 ) ) ;
#34 = COORDINATED_UNIVERSAL_TIME_OFFSET ( 1, 0, .AHEAD. ) ;
#35 = DIRECTION ( 'NONE',  ( -1.000000000000000000, 0.000000000000000000, 0.000000000000000000 ) ) ;
#36 = PERSON_AND_ORGANIZATION ( #62, #45 ) ;
#37 = LINE ( 'NONE', #226, #78 ) ;
#38 =( NAMED_UNIT ( * ) SI_UNIT ( $, .STERADIAN. ) SOLID_ANGLE_UNIT ( ) );
#39 = ADVANCED_FACE ( 'NONE', ( #24 ), #162, .T. ) ;
#40 = CIRCLE ( 'NONE', #97, 3.250000000000000444 ) ;
#41 = SECURITY_CLASSIFICATION ( '', '', #18 ) ;
#42 = CC_DESIGN_DATE_AND_TIME_ASSIGNMENT ( #111, #7, ( #41 ) ) ;
#43 = VERTEX_POINT ( 'NONE', #68 ) ;
#44 = CYLINDRICAL_SURFACE ( 'NONE', #158, 6.000000000000000888 ) ;
#45 = ORGANIZATION ( 'NEURÈENÝ', 'NEURÈENÝ', '' ) ;
#46 = CARTESIAN_POINT ( 'NONE',  ( 0.000000000000000000, 0.000000000000000000, 100.0000000000000000 ) ) ;
#47 = VERTEX_POINT ( 'NONE', #221 ) ;
#48 = DIRECTION ( 'NONE',  ( -0.000000000000000000, -0.000000000000000000, -1.000000000000000000 ) ) ;
#49 = CARTESIAN_POINT ( 'NONE',  ( 0.000000000000000000, 0.000000000000000000, 0.000000000000000000 ) ) ;
#50 = FACE_BOUND ( 'NONE', #219, .T. ) ;
#51 = APPROVAL_ROLE ( '' ) ;
#52 = PLANE ( 'NONE',  #176 ) ;
#53 = DATE_AND_TIME ( #155, #233 ) ;
#54 = EDGE_CURVE ( 'NONE', #47, #206, #148, .T. ) ;
#55 = CARTESIAN_POINT ( 'NONE',  ( 0.000000000000000000, 0.000000000000000000, 100.0000000000000000 ) ) ;
#56 = EDGE_CURVE ( 'NONE', #126, #10, #186, .T. ) ;
#57 = UNCERTAINTY_MEASURE_WITH_UNIT (LENGTH_MEASURE( 1.000000000000000082E-05 ), #113, 'distance_accuracy_value', 'NONE');
#58 = ORIENTED_EDGE ( 'NONE', *, *, #160, .T. ) ;
#59 = DIRECTION ( 'NONE',  ( 0.000000000000000000, 0.000000000000000000, 1.000000000000000000 ) ) ;
#60 = DATE_AND_TIME ( #82, #161 ) ;
#61 = ORIENTED_EDGE ( 'NONE', *, *, #218, .T. ) ;
#62 = PERSON ( 'NEURÈENÝ', 'NEURÈENÝ', 'NEURÈENÝ', ('NEURÈENÝ'), ('NEURÈENÝ'), ('NEURÈENÝ') ) ;
#63 = AXIS2_PLACEMENT_3D ( 'NONE', #26, #149, #188 ) ;
#64 = FACE_OUTER_BOUND ( 'NONE', #168, .T. ) ;
#65 = APPROVAL_ROLE ( '' ) ;
#66 = DIRECTION ( 'NONE',  ( 1.000000000000000000, 0.000000000000000000, 0.000000000000000000 ) ) ;
#67 = DIRECTION ( 'NONE',  ( -0.000000000000000000, -0.000000000000000000, -1.000000000000000000 ) ) ;
#68 = CARTESIAN_POINT ( 'NONE',  ( 6.000000000000000888, 7.347880794884120722E-16, 5.000000000000000000 ) ) ;
#69 = ADVANCED_FACE ( 'NONE', ( #235 ), #44, .T. ) ;
#70 = AXIS2_PLACEMENT_3D ( 'NONE', #202, #104, #5 ) ;
#71 = DIRECTION ( 'NONE',  ( 0.000000000000000000, 0.000000000000000000, 1.000000000000000000 ) ) ;
#72 = APPROVAL_STATUS ( 'not_yet_approved' ) ;
#73 = PLANE ( 'NONE',  #77 ) ;
#74 = PERSON_AND_ORGANIZATION ( #62, #45 ) ;
#75 = CARTESIAN_POINT ( 'NONE',  ( 3.250000000000000444, 3.980102097228898231E-16, 5.000000000000000000 ) ) ;
#76 = CARTESIAN_POINT ( 'NONE',  ( 0.000000000000000000, 0.000000000000000000, 0.000000000000000000 ) ) ;
#77 = AXIS2_PLACEMENT_3D ( 'NONE', #131, #114, #88 ) ;
#78 = VECTOR ( 'NONE', #169, 1000.000000000000000 ) ;
#79 = EDGE_CURVE ( 'NONE', #166, #43, #136, .T. ) ;
#80 = ORIENTED_EDGE ( 'NONE', *, *, #218, .F. ) ;
#81 = CARTESIAN_POINT ( 'NONE',  ( -6.000000000000000888, 0.000000000000000000, 0.000000000000000000 ) ) ;
#82 = CALENDAR_DATE ( 2023, 13, 2 ) ;
#83 = ORIENTED_EDGE ( 'NONE', *, *, #160, .F. ) ;
#84 = DIRECTION ( 'NONE',  ( -1.000000000000000000, 0.000000000000000000, 0.000000000000000000 ) ) ;
#85 = APPLICATION_CONTEXT ( 'configuration controlled 3d designs of mechanical parts and assemblies' ) ;
#86 = ORIENTED_EDGE ( 'NONE', *, *, #56, .T. ) ;
#87 = APPROVAL_DATE_TIME ( #241, #100 ) ;
#88 = DIRECTION ( 'NONE',  ( 1.000000000000000000, 0.000000000000000000, -0.000000000000000000 ) ) ;
#89 = FACE_OUTER_BOUND ( 'NONE', #8, .T. ) ;
#90 = CIRCLE ( 'NONE', #122, 3.250000000000000444 ) ;
#91 =( GEOMETRIC_REPRESENTATION_CONTEXT ( 3 ) GLOBAL_UNCERTAINTY_ASSIGNED_CONTEXT ( ( #57 ) ) GLOBAL_UNIT_ASSIGNED_CONTEXT ( ( #113, #134, #38 ) ) REPRESENTATION_CONTEXT ( 'NONE', 'WORKASPACE' ) );
#92 = DIRECTION ( 'NONE',  ( 0.000000000000000000, 0.000000000000000000, 1.000000000000000000 ) ) ;
#93 = CC_DESIGN_PERSON_AND_ORGANIZATION_ASSIGNMENT ( #117, #167, ( #178 ) ) ;
#94 = PLANE ( 'NONE',  #115 ) ;
#95 = DIRECTION ( 'NONE',  ( 1.000000000000000000, 0.000000000000000000, -0.000000000000000000 ) ) ;
#96 = PERSON_AND_ORGANIZATION ( #62, #45 ) ;
#97 = AXIS2_PLACEMENT_3D ( 'NONE', #230, #247, #133 ) ;
#98 = DESIGN_CONTEXT ( 'detailed design', #118, 'design' ) ;
#99 = PRODUCT_DEFINITION ( 'NEZNÁMÝ', '', #178, #98 ) ;
#100 = APPROVAL ( #187, 'NEURÈENÝ' ) ;
#101 = CC_DESIGN_APPROVAL ( #100, ( #178 ) ) ;
#102 = ORIENTED_EDGE ( 'NONE', *, *, #207, .F. ) ;
#103 = COORDINATED_UNIVERSAL_TIME_OFFSET ( 1, 0, .AHEAD. ) ;
#104 = DIRECTION ( 'NONE',  ( 0.000000000000000000, 0.000000000000000000, 1.000000000000000000 ) ) ;
#105 = ORIENTED_EDGE ( 'NONE', *, *, #180, .T. ) ;
#106 = CC_DESIGN_DATE_AND_TIME_ASSIGNMENT ( #53, #212, ( #99 ) ) ;
#107 = CALENDAR_DATE ( 2023, 13, 2 ) ;
#108 = AXIS2_PLACEMENT_3D ( 'NONE', #76, #173, #191 ) ;
#109 = DIRECTION ( 'NONE',  ( -1.000000000000000000, 0.000000000000000000, 0.000000000000000000 ) ) ;
#110 = DIRECTION ( 'NONE',  ( 1.000000000000000000, 0.000000000000000000, -0.000000000000000000 ) ) ;
#111 = DATE_AND_TIME ( #184, #30 ) ;
#112 = CARTESIAN_POINT ( 'NONE',  ( 0.000000000000000000, 0.000000000000000000, 5.000000000000000000 ) ) ;
#113 =( LENGTH_UNIT ( ) NAMED_UNIT ( * ) SI_UNIT ( .MILLI., .METRE. ) );
#114 = DIRECTION ( 'NONE',  ( 0.000000000000000000, 0.000000000000000000, 1.000000000000000000 ) ) ;
#115 = AXIS2_PLACEMENT_3D ( 'NONE', #250, #15, #110 ) ;
#116 = FACE_OUTER_BOUND ( 'NONE', #204, .T. ) ;
#117 = PERSON_AND_ORGANIZATION ( #62, #45 ) ;
#118 = APPLICATION_CONTEXT ( 'configuration controlled 3d designs of mechanical parts and assemblies' ) ;
#119 = APPROVAL_PERSON_ORGANIZATION ( #13, #19, #65 ) ;
#120 = ORIENTED_EDGE ( 'NONE', *, *, #12, .T. ) ;
#121 = DIRECTION ( 'NONE',  ( -1.000000000000000000, 0.000000000000000000, 0.000000000000000000 ) ) ;
#122 = AXIS2_PLACEMENT_3D ( 'NONE', #112, #143, #3 ) ;
#123 = CARTESIAN_POINT ( 'NONE',  ( 0.000000000000000000, 0.000000000000000000, 5.000000000000000000 ) ) ;
#124 = CARTESIAN_POINT ( 'NONE',  ( 3.250000000000000444, 3.980102097228898231E-16, 100.0000000000000000 ) ) ;
#125 = PERSON_AND_ORGANIZATION ( #62, #45 ) ;
#126 = VERTEX_POINT ( 'NONE', #81 ) ;
#127 = APPLICATION_PROTOCOL_DEFINITION ( 'international standard', 'config_control_design', 1994, #85 ) ;
#128 = LOCAL_TIME ( 15, 53, 49.00000000000000000, #11 ) ;
#129 = DIRECTION ( 'NONE',  ( 0.000000000000000000, 0.000000000000000000, 1.000000000000000000 ) ) ;
#130 = CYLINDRICAL_SURFACE ( 'NONE', #215, 6.000000000000000888 ) ;
#131 = CARTESIAN_POINT ( 'NONE',  ( 0.000000000000000000, 0.000000000000000000, 0.000000000000000000 ) ) ;
#132 = DATE_AND_TIME ( #107, #159 ) ;
#133 = DIRECTION ( 'NONE',  ( 1.000000000000000000, 0.000000000000000000, 0.000000000000000000 ) ) ;
#134 =( NAMED_UNIT ( * ) PLANE_ANGLE_UNIT ( ) SI_UNIT ( $, .RADIAN. ) );
#135 = DIRECTION ( 'NONE',  ( 0.000000000000000000, 0.000000000000000000, 1.000000000000000000 ) ) ;
#136 = CIRCLE ( 'NONE', #70, 6.000000000000000888 ) ;
#137 = CC_DESIGN_PERSON_AND_ORGANIZATION_ASSIGNMENT ( #74, #189, ( #99 ) ) ;
#138 = PRODUCT ( '2892', '2892', '', ( #248 ) ) ;
#139 = CC_DESIGN_APPROVAL ( #150, ( #99 ) ) ;
#140 = VERTEX_POINT ( 'NONE', #164 ) ;
#141 = ORIENTED_EDGE ( 'NONE', *, *, #54, .F. ) ;
#142 = EDGE_LOOP ( 'NONE', ( #216, #240 ) ) ;
#143 = DIRECTION ( 'NONE',  ( 0.000000000000000000, 0.000000000000000000, 1.000000000000000000 ) ) ;
#144 = CIRCLE ( 'NONE', #177, 6.000000000000000888 ) ;
#145 = AXIS2_PLACEMENT_3D ( 'NONE', #211, #71, #192 ) ;
#146 = ADVANCED_FACE ( 'NONE', ( #64 ), #193, .T. ) ;
#147 = ORIENTED_EDGE ( 'NONE', *, *, #56, .F. ) ;
#148 = LINE ( 'NONE', #124, #198 ) ;
#149 = DIRECTION ( 'NONE',  ( 0.000000000000000000, 0.000000000000000000, 1.000000000000000000 ) ) ;
#150 = APPROVAL ( #72, 'NEURÈENÝ' ) ;
#151 = CC_DESIGN_SECURITY_CLASSIFICATION ( #41, ( #178 ) ) ;
#152 = CARTESIAN_POINT ( 'NONE',  ( 0.000000000000000000, 0.000000000000000000, 5.000000000000000000 ) ) ;
#153 = DIRECTION ( 'NONE',  ( -0.000000000000000000, -0.000000000000000000, -1.000000000000000000 ) ) ;
#154 = DIRECTION ( 'NONE',  ( -0.000000000000000000, -0.000000000000000000, -1.000000000000000000 ) ) ;
#155 = CALENDAR_DATE ( 2023, 13, 2 ) ;
#156 = DIRECTION ( 'NONE',  ( -0.000000000000000000, -0.000000000000000000, -1.000000000000000000 ) ) ;
#157 = PERSON_AND_ORGANIZATION ( #62, #45 ) ;
#158 = AXIS2_PLACEMENT_3D ( 'NONE', #123, #222, #121 ) ;
#159 = LOCAL_TIME ( 15, 53, 49.00000000000000000, #205 ) ;
#160 = EDGE_CURVE ( 'NONE', #166, #126, #16, .T. ) ;
#161 = LOCAL_TIME ( 15, 53, 49.00000000000000000, #210 ) ;
#162 = CYLINDRICAL_SURFACE ( 'NONE', #252, 3.250000000000000444 ) ;
#163 = ORIENTED_EDGE ( 'NONE', *, *, #228, .F. ) ;
#164 = CARTESIAN_POINT ( 'NONE',  ( -3.250000000000000444, 0.000000000000000000, 100.0000000000000000 ) ) ;
#165 = APPROVAL_DATE_TIME ( #60, #19 ) ;
#166 = VERTEX_POINT ( 'NONE', #17 ) ;
#167 = PERSON_AND_ORGANIZATION_ROLE ( 'creator' ) ;
#168 = EDGE_LOOP ( 'NONE', ( #102, #185, #120, #225 ) ) ;
#169 = DIRECTION ( 'NONE',  ( -0.000000000000000000, -0.000000000000000000, -1.000000000000000000 ) ) ;
#170 = CLOSED_SHELL ( 'NONE', ( #146, #239, #69, #194, #199, #39, #253 ) ) ;
#171 = APPROVAL_PERSON_ORGANIZATION ( #36, #100, #214 ) ;
#172 = DIRECTION ( 'NONE',  ( 1.000000000000000000, 0.000000000000000000, 0.000000000000000000 ) ) ;
#173 = DIRECTION ( 'NONE',  ( 0.000000000000000000, 0.000000000000000000, 1.000000000000000000 ) ) ;
#174 = CARTESIAN_POINT ( 'NONE',  ( 6.000000000000000888, 7.347880794884120722E-16, 5.000000000000000000 ) ) ;
#175 = PERSON_AND_ORGANIZATION ( #62, #45 ) ;
#176 = AXIS2_PLACEMENT_3D ( 'NONE', #152, #135, #95 ) ;
#177 = AXIS2_PLACEMENT_3D ( 'NONE', #31, #59, #66 ) ;
#178 = PRODUCT_DEFINITION_FORMATION_WITH_SPECIFIED_SOURCE ( 'LIBOVOLNÝ', '', #138, .NOT_KNOWN. ) ;
#179 = ORIENTED_EDGE ( 'NONE', *, *, #22, .F. ) ;
#180 = EDGE_CURVE ( 'NONE', #140, #28, #37, .T. ) ;
#181 = ORIENTED_EDGE ( 'NONE', *, *, #79, .T. ) ;
#182 = SHAPE_DEFINITION_REPRESENTATION ( #255, #4 ) ;
#183 = ORIENTED_EDGE ( 'NONE', *, *, #22, .T. ) ;
#184 = CALENDAR_DATE ( 2023, 13, 2 ) ;
#185 = ORIENTED_EDGE ( 'NONE', *, *, #54, .T. ) ;
#186 = CIRCLE ( 'NONE', #196, 6.000000000000000888 ) ;
#187 = APPROVAL_STATUS ( 'not_yet_approved' ) ;
#188 = DIRECTION ( 'NONE',  ( 1.000000000000000000, 0.000000000000000000, 0.000000000000000000 ) ) ;
#189 = PERSON_AND_ORGANIZATION_ROLE ( 'creator' ) ;
#190 = ORIENTED_EDGE ( 'NONE', *, *, #232, .F. ) ;
#191 = DIRECTION ( 'NONE',  ( 1.000000000000000000, 0.000000000000000000, 0.000000000000000000 ) ) ;
#192 = DIRECTION ( 'NONE',  ( 1.000000000000000000, 0.000000000000000000, 0.000000000000000000 ) ) ;
#193 = CYLINDRICAL_SURFACE ( 'NONE', #220, 3.250000000000000444 ) ;
#194 = ADVANCED_FACE ( 'NONE', ( #50, #243 ), #52, .T. ) ;
#195 = PERSON_AND_ORGANIZATION_ROLE ( 'design_supplier' ) ;
#196 = AXIS2_PLACEMENT_3D ( 'NONE', #49, #129, #33 ) ;
#197 = CC_DESIGN_PERSON_AND_ORGANIZATION_ASSIGNMENT ( #157, #29, ( #138 ) ) ;
#198 = VECTOR ( 'NONE', #208, 1000.000000000000000 ) ;
#199 = ADVANCED_FACE ( 'NONE', ( #116 ), #73, .F. ) ;
#200 = ORIENTED_EDGE ( 'NONE', *, *, #232, .T. ) ;
#201 = AXIS2_PLACEMENT_3D ( 'NONE', #229, #92, #172 ) ;
#202 = CARTESIAN_POINT ( 'NONE',  ( 0.000000000000000000, 0.000000000000000000, 5.000000000000000000 ) ) ;
#203 = ORIENTED_EDGE ( 'NONE', *, *, #27, .F. ) ;
#204 = EDGE_LOOP ( 'NONE', ( #147, #179 ) ) ;
#205 = COORDINATED_UNIVERSAL_TIME_OFFSET ( 1, 0, .AHEAD. ) ;
#206 = VERTEX_POINT ( 'NONE', #75 ) ;
#207 = EDGE_CURVE ( 'NONE', #47, #140, #244, .T. ) ;
#208 = DIRECTION ( 'NONE',  ( -0.000000000000000000, -0.000000000000000000, -1.000000000000000000 ) ) ;
#209 = CARTESIAN_POINT ( 'NONE',  ( 0.000000000000000000, 0.000000000000000000, 5.000000000000000000 ) ) ;
#210 = COORDINATED_UNIVERSAL_TIME_OFFSET ( 1, 0, .AHEAD. ) ;
#211 = CARTESIAN_POINT ( 'NONE',  ( 0.000000000000000000, 0.000000000000000000, 100.0000000000000000 ) ) ;
#212 = DATE_TIME_ROLE ( 'creation_date' ) ;
#213 = LINE ( 'NONE', #174, #23 ) ;
#214 = APPROVAL_ROLE ( '' ) ;
#215 = AXIS2_PLACEMENT_3D ( 'NONE', #209, #153, #84 ) ;
#216 = ORIENTED_EDGE ( 'NONE', *, *, #228, .T. ) ;
#217 = EDGE_LOOP ( 'NONE', ( #190, #223, #58, #86 ) ) ;
#218 = EDGE_CURVE ( 'NONE', #43, #166, #20, .T. ) ;
#219 = EDGE_LOOP ( 'NONE', ( #203, #242 ) ) ;
#220 = AXIS2_PLACEMENT_3D ( 'NONE', #55, #154, #35 ) ;
#221 = CARTESIAN_POINT ( 'NONE',  ( 3.250000000000000444, 3.980102097228898231E-16, 100.0000000000000000 ) ) ;
#222 = DIRECTION ( 'NONE',  ( -0.000000000000000000, -0.000000000000000000, -1.000000000000000000 ) ) ;
#223 = ORIENTED_EDGE ( 'NONE', *, *, #79, .F. ) ;
#224 = PRODUCT_RELATED_PRODUCT_CATEGORY ( 'detail', '', ( #138 ) ) ;
#225 = ORIENTED_EDGE ( 'NONE', *, *, #180, .F. ) ;
#226 = CARTESIAN_POINT ( 'NONE',  ( -3.250000000000000444, 0.000000000000000000, 100.0000000000000000 ) ) ;
#227 = FACE_OUTER_BOUND ( 'NONE', #142, .T. ) ;
#228 = EDGE_CURVE ( 'NONE', #140, #47, #40, .T. ) ;
#229 = CARTESIAN_POINT ( 'NONE',  ( 0.000000000000000000, 0.000000000000000000, 5.000000000000000000 ) ) ;
#230 = CARTESIAN_POINT ( 'NONE',  ( 0.000000000000000000, 0.000000000000000000, 100.0000000000000000 ) ) ;
#231 = CC_DESIGN_APPROVAL ( #19, ( #41 ) ) ;
#232 = EDGE_CURVE ( 'NONE', #43, #10, #213, .T. ) ;
#233 = LOCAL_TIME ( 15, 53, 49.00000000000000000, #34 ) ;
#234 = EDGE_LOOP ( 'NONE', ( #181, #61 ) ) ;
#235 = FACE_OUTER_BOUND ( 'NONE', #217, .T. ) ;
#236 = ORIENTED_EDGE ( 'NONE', *, *, #27, .T. ) ;
#237 = CIRCLE ( 'NONE', #63, 3.250000000000000444 ) ;
#238 = CARTESIAN_POINT ( 'NONE',  ( 6.000000000000000888, 7.347880794884120722E-16, 0.000000000000000000 ) ) ;
#239 = ADVANCED_FACE ( 'NONE', ( #89 ), #130, .T. ) ;
#240 = ORIENTED_EDGE ( 'NONE', *, *, #207, .T. ) ;
#241 = DATE_AND_TIME ( #9, #128 ) ;
#242 = ORIENTED_EDGE ( 'NONE', *, *, #12, .F. ) ;
#243 = FACE_OUTER_BOUND ( 'NONE', #234, .T. ) ;
#244 = CIRCLE ( 'NONE', #145, 3.250000000000000444 ) ;
#245 = CC_DESIGN_PERSON_AND_ORGANIZATION_ASSIGNMENT ( #96, #2, ( #41 ) ) ;
#246 = APPLICATION_PROTOCOL_DEFINITION ( 'international standard', 'config_control_design', 1994, #118 ) ;
#247 = DIRECTION ( 'NONE',  ( 0.000000000000000000, 0.000000000000000000, 1.000000000000000000 ) ) ;
#248 = MECHANICAL_CONTEXT ( 'NONE', #85, 'mechanical' ) ;
#249 = CARTESIAN_POINT ( 'NONE',  ( -6.000000000000000888, 0.000000000000000000, 5.000000000000000000 ) ) ;
#250 = CARTESIAN_POINT ( 'NONE',  ( 0.000000000000000000, 0.000000000000000000, 100.0000000000000000 ) ) ;
#251 = MANIFOLD_SOLID_BREP ( 'Pøidat vysunutím3', #170 ) ;
#252 = AXIS2_PLACEMENT_3D ( 'NONE', #46, #48, #109 ) ;
#253 = ADVANCED_FACE ( 'NONE', ( #227 ), #94, .T. ) ;
#254 = VECTOR ( 'NONE', #156, 1000.000000000000000 ) ;
#255 = PRODUCT_DEFINITION_SHAPE ( 'NONE', 'NONE',  #99 ) ;
ENDSEC;
END-ISO-10303-21;
