ISO-10303-21;
HEADER;
FILE_DESCRIPTION (( 'STEP AP203' ),
    '1' );
FILE_NAME ('e44b.STEP',
    '2022-07-07T17:52:45',
    ( '' ),
    ( '' ),
    'SwSTEP 2.0',
    'SolidWorks 2019',
    '' );
FILE_SCHEMA (( 'CONFIG_CONTROL_DESIGN' ));
ENDSEC;

DATA;
#1 = CALENDAR_DATE ( 2022, 7, 7 ) ;
#2 = AXIS2_PLACEMENT_3D ( 'NONE', #191, #13, #98 ) ;
#3 = AXIS2_PLACEMENT_3D ( 'NONE', #178, #78, #188 ) ;
#4 = CIRCLE ( 'NONE', #35, 2.000000000000000000 ) ;
#5 = APPROVAL ( #71, 'NEURÈENÝ' ) ;
#6 = CARTESIAN_POINT ( 'NONE',  ( 4.000000000000000000, 4.898587196589412829E-16, 0.000000000000000000 ) ) ;
#7 = CC_DESIGN_DATE_AND_TIME_ASSIGNMENT ( #181, #129, ( #62 ) ) ;
#8 = CARTESIAN_POINT ( 'NONE',  ( -2.000000000000000000, 0.000000000000000000, 3.000000000000000000 ) ) ;
#9 = VERTEX_POINT ( 'NONE', #134 ) ;
#10 = CARTESIAN_POINT ( 'NONE',  ( 4.000000000000000000, 4.898587196589412829E-16, 3.000000000000000000 ) ) ;
#11 = DIRECTION ( 'NONE',  ( 1.000000000000000000, 0.000000000000000000, 0.000000000000000000 ) ) ;
#12 = VERTEX_POINT ( 'NONE', #8 ) ;
#13 = DIRECTION ( 'NONE',  ( 0.000000000000000000, 0.000000000000000000, 1.000000000000000000 ) ) ;
#14 = EDGE_LOOP ( 'NONE', ( #53, #77, #231, #177 ) ) ;
#15 = CIRCLE ( 'NONE', #22, 2.000000000000000000 ) ;
#16 = ORIENTED_EDGE ( 'NONE', *, *, #167, .T. ) ;
#17 = DIRECTION ( 'NONE',  ( -0.000000000000000000, -0.000000000000000000, -1.000000000000000000 ) ) ;
#18 = CC_DESIGN_PERSON_AND_ORGANIZATION_ASSIGNMENT ( #233, #143, ( #232 ) ) ;
#19 = DATE_TIME_ROLE ( 'creation_date' ) ;
#20 = APPROVAL ( #255, 'NEURÈENÝ' ) ;
#21 = EDGE_CURVE ( 'NONE', #154, #251, #88, .T. ) ;
#22 = AXIS2_PLACEMENT_3D ( 'NONE', #151, #223, #46 ) ;
#23 = CARTESIAN_POINT ( 'NONE',  ( 0.000000000000000000, 0.000000000000000000, 103.0000000000000142 ) ) ;
#24 = EDGE_CURVE ( 'NONE', #207, #140, #173, .T. ) ;
#25 = PLANE ( 'NONE',  #214 ) ;
#26 = ORIENTED_EDGE ( 'NONE', *, *, #149, .T. ) ;
#27 = DIRECTION ( 'NONE',  ( 1.000000000000000000, 0.000000000000000000, 0.000000000000000000 ) ) ;
#28 = ORIENTED_EDGE ( 'NONE', *, *, #38, .F. ) ;
#29 = UNCERTAINTY_MEASURE_WITH_UNIT (LENGTH_MEASURE( 1.000000000000000082E-05 ), #34, 'distance_accuracy_value', 'NONE');
#30 = DIRECTION ( 'NONE',  ( 1.000000000000000000, 0.000000000000000000, -0.000000000000000000 ) ) ;
#31 = ORIENTED_EDGE ( 'NONE', *, *, #24, .T. ) ;
#32 = FACE_OUTER_BOUND ( 'NONE', #36, .T. ) ;
#33 = EDGE_LOOP ( 'NONE', ( #204, #123, #70, #26 ) ) ;
#34 =( LENGTH_UNIT ( ) NAMED_UNIT ( * ) SI_UNIT ( .MILLI., .METRE. ) );
#35 = AXIS2_PLACEMENT_3D ( 'NONE', #73, #37, #96 ) ;
#36 = EDGE_LOOP ( 'NONE', ( #31, #16 ) ) ;
#37 = DIRECTION ( 'NONE',  ( 0.000000000000000000, 0.000000000000000000, 1.000000000000000000 ) ) ;
#38 = EDGE_CURVE ( 'NONE', #50, #12, #49, .T. ) ;
#39 = APPROVAL_PERSON_ORGANIZATION ( #132, #95, #64 ) ;
#40 = PERSON_AND_ORGANIZATION ( #197, #59 ) ;
#41 = DATE_AND_TIME ( #126, #186 ) ;
#42 = PERSON_AND_ORGANIZATION_ROLE ( 'creator' ) ;
#43 = APPROVAL_PERSON_ORGANIZATION ( #248, #5, #155 ) ;
#44 = VECTOR ( 'NONE', #90, 1000.000000000000000 ) ;
#45 = APPROVAL_PERSON_ORGANIZATION ( #219, #20, #131 ) ;
#46 = DIRECTION ( 'NONE',  ( 1.000000000000000000, 0.000000000000000000, 0.000000000000000000 ) ) ;
#47 = CC_DESIGN_PERSON_AND_ORGANIZATION_ASSIGNMENT ( #63, #80, ( #79 ) ) ;
#48 = DIRECTION ( 'NONE',  ( 1.000000000000000000, 0.000000000000000000, 0.000000000000000000 ) ) ;
#49 = CIRCLE ( 'NONE', #239, 2.000000000000000000 ) ;
#50 = VERTEX_POINT ( 'NONE', #202 ) ;
#51 = DIRECTION ( 'NONE',  ( 1.000000000000000000, 0.000000000000000000, 0.000000000000000000 ) ) ;
#52 = CYLINDRICAL_SURFACE ( 'NONE', #133, 2.000000000000000000 ) ;
#53 = ORIENTED_EDGE ( 'NONE', *, *, #167, .F. ) ;
#54 = PRODUCT_DEFINITION_SHAPE ( 'NONE', 'NONE',  #183 ) ;
#55 = CARTESIAN_POINT ( 'NONE',  ( 0.000000000000000000, 0.000000000000000000, 103.0000000000000142 ) ) ;
#56 = ADVANCED_FACE ( 'NONE', ( #89 ), #52, .T. ) ;
#57 = VERTEX_POINT ( 'NONE', #6 ) ;
#58 = CYLINDRICAL_SURFACE ( 'NONE', #144, 4.000000000000000000 ) ;
#59 = ORGANIZATION ( 'NEURÈENÝ', 'NEURÈENÝ', '' ) ;
#60 = EDGE_CURVE ( 'NONE', #207, #12, #172, .T. ) ;
#61 = PERSON_AND_ORGANIZATION_ROLE ( 'design_supplier' ) ;
#62 = SECURITY_CLASSIFICATION ( '', '', #104 ) ;
#63 = PERSON_AND_ORGANIZATION ( #197, #59 ) ;
#64 = APPROVAL_ROLE ( '' ) ;
#65 = ADVANCED_FACE ( 'NONE', ( #156, #72 ), #25, .T. ) ;
#66 = CARTESIAN_POINT ( 'NONE',  ( 2.000000000000000000, 2.449293598294706414E-16, 103.0000000000000142 ) ) ;
#67 = MANIFOLD_SOLID_BREP ( 'Pøidat vysunutím3', #198 ) ;
#68 = DIRECTION ( 'NONE',  ( -0.000000000000000000, -0.000000000000000000, -1.000000000000000000 ) ) ;
#69 = CARTESIAN_POINT ( 'NONE',  ( 0.000000000000000000, 0.000000000000000000, 0.000000000000000000 ) ) ;
#70 = ORIENTED_EDGE ( 'NONE', *, *, #60, .T. ) ;
#71 = APPROVAL_STATUS ( 'not_yet_approved' ) ;
#72 = FACE_OUTER_BOUND ( 'NONE', #157, .T. ) ;
#73 = CARTESIAN_POINT ( 'NONE',  ( 0.000000000000000000, 0.000000000000000000, 103.0000000000000142 ) ) ;
#74 = CARTESIAN_POINT ( 'NONE',  ( 0.000000000000000000, 0.000000000000000000, 3.000000000000000000 ) ) ;
#75 = ORIENTED_EDGE ( 'NONE', *, *, #149, .F. ) ;
#76 = CARTESIAN_POINT ( 'NONE',  ( -2.000000000000000000, 0.000000000000000000, 103.0000000000000142 ) ) ;
#77 = ORIENTED_EDGE ( 'NONE', *, *, #105, .T. ) ;
#78 = DIRECTION ( 'NONE',  ( 0.000000000000000000, 0.000000000000000000, 1.000000000000000000 ) ) ;
#79 = PRODUCT_DEFINITION_FORMATION_WITH_SPECIFIED_SOURCE ( 'LIBOVOLNÝ', '', #232, .NOT_KNOWN. ) ;
#80 = PERSON_AND_ORGANIZATION_ROLE ( 'creator' ) ;
#81 = DATE_AND_TIME ( #216, #222 ) ;
#82 = AXIS2_PLACEMENT_3D ( 'NONE', #69, #153, #27 ) ;
#83 = APPROVAL_DATE_TIME ( #81, #20 ) ;
#84 = ADVANCED_FACE ( 'NONE', ( #170 ), #137, .T. ) ;
#85 = AXIS2_PLACEMENT_3D ( 'NONE', #23, #68, #224 ) ;
#86 = CC_DESIGN_APPROVAL ( #5, ( #183 ) ) ;
#87 = PLANE ( 'NONE',  #97 ) ;
#88 = CIRCLE ( 'NONE', #108, 4.000000000000000000 ) ;
#89 = FACE_OUTER_BOUND ( 'NONE', #14, .T. ) ;
#90 = DIRECTION ( 'NONE',  ( -0.000000000000000000, -0.000000000000000000, -1.000000000000000000 ) ) ;
#91 = ORIENTED_EDGE ( 'NONE', *, *, #209, .T. ) ;
#92 = DIRECTION ( 'NONE',  ( 0.000000000000000000, 0.000000000000000000, 1.000000000000000000 ) ) ;
#93 = DIRECTION ( 'NONE',  ( 1.000000000000000000, 0.000000000000000000, 0.000000000000000000 ) ) ;
#94 = EDGE_LOOP ( 'NONE', ( #227, #119, #113, #99 ) ) ;
#95 = APPROVAL ( #148, 'NEURÈENÝ' ) ;
#96 = DIRECTION ( 'NONE',  ( 1.000000000000000000, 0.000000000000000000, 0.000000000000000000 ) ) ;
#97 = AXIS2_PLACEMENT_3D ( 'NONE', #226, #210, #30 ) ;
#98 = DIRECTION ( 'NONE',  ( 1.000000000000000000, 0.000000000000000000, 0.000000000000000000 ) ) ;
#99 = ORIENTED_EDGE ( 'NONE', *, *, #209, .F. ) ;
#100 = ADVANCED_FACE ( 'NONE', ( #205 ), #87, .F. ) ;
#101 = AXIS2_PLACEMENT_3D ( 'NONE', #115, #225, #11 ) ;
#102 = VECTOR ( 'NONE', #158, 1000.000000000000000 ) ;
#103 = COORDINATED_UNIVERSAL_TIME_OFFSET ( 1, 0, .AHEAD. ) ;
#104 = SECURITY_CLASSIFICATION_LEVEL ( 'unclassified' ) ;
#105 = EDGE_CURVE ( 'NONE', #140, #50, #112, .T. ) ;
#106 = COORDINATED_UNIVERSAL_TIME_OFFSET ( 1, 0, .AHEAD. ) ;
#107 = EDGE_CURVE ( 'NONE', #57, #9, #125, .T. ) ;
#108 = AXIS2_PLACEMENT_3D ( 'NONE', #203, #111, #48 ) ;
#109 = LOCAL_TIME ( 19, 52, 45.00000000000000000, #145 ) ;
#110 = ADVANCED_BREP_SHAPE_REPRESENTATION ( 'e44b', ( #67, #3 ), #175 ) ;
#111 = DIRECTION ( 'NONE',  ( 0.000000000000000000, 0.000000000000000000, 1.000000000000000000 ) ) ;
#112 = LINE ( 'NONE', #185, #44 ) ;
#113 = ORIENTED_EDGE ( 'NONE', *, *, #107, .T. ) ;
#114 =( NAMED_UNIT ( * ) SI_UNIT ( $, .STERADIAN. ) SOLID_ANGLE_UNIT ( ) );
#115 = CARTESIAN_POINT ( 'NONE',  ( 0.000000000000000000, 0.000000000000000000, 103.0000000000000142 ) ) ;
#116 = ORIENTED_EDGE ( 'NONE', *, *, #128, .T. ) ;
#117 = COORDINATED_UNIVERSAL_TIME_OFFSET ( 1, 0, .AHEAD. ) ;
#118 = DIRECTION ( 'NONE',  ( -0.000000000000000000, -0.000000000000000000, -1.000000000000000000 ) ) ;
#119 = ORIENTED_EDGE ( 'NONE', *, *, #195, .T. ) ;
#120 = DIRECTION ( 'NONE',  ( 0.000000000000000000, 0.000000000000000000, 1.000000000000000000 ) ) ;
#121 = ORIENTED_EDGE ( 'NONE', *, *, #21, .T. ) ;
#122 =( NAMED_UNIT ( * ) PLANE_ANGLE_UNIT ( ) SI_UNIT ( $, .RADIAN. ) );
#123 = ORIENTED_EDGE ( 'NONE', *, *, #24, .F. ) ;
#124 = CARTESIAN_POINT ( 'NONE',  ( -4.000000000000000000, 0.000000000000000000, 3.000000000000000000 ) ) ;
#125 = CIRCLE ( 'NONE', #82, 4.000000000000000000 ) ;
#126 = CALENDAR_DATE ( 2022, 7, 7 ) ;
#127 = CC_DESIGN_SECURITY_CLASSIFICATION ( #62, ( #79 ) ) ;
#128 = EDGE_CURVE ( 'NONE', #9, #57, #150, .T. ) ;
#129 = DATE_TIME_ROLE ( 'classification_date' ) ;
#130 = SHAPE_DEFINITION_REPRESENTATION ( #54, #110 ) ;
#131 = APPROVAL_ROLE ( '' ) ;
#132 = PERSON_AND_ORGANIZATION ( #197, #59 ) ;
#133 = AXIS2_PLACEMENT_3D ( 'NONE', #135, #118, #184 ) ;
#134 = CARTESIAN_POINT ( 'NONE',  ( -4.000000000000000000, 0.000000000000000000, 0.000000000000000000 ) ) ;
#135 = CARTESIAN_POINT ( 'NONE',  ( 0.000000000000000000, 0.000000000000000000, 103.0000000000000142 ) ) ;
#136 = ADVANCED_FACE ( 'NONE', ( #174 ), #250, .T. ) ;
#137 = CYLINDRICAL_SURFACE ( 'NONE', #85, 2.000000000000000000 ) ;
#138 = AXIS2_PLACEMENT_3D ( 'NONE', #194, #92, #51 ) ;
#139 = DIRECTION ( 'NONE',  ( 0.000000000000000000, 0.000000000000000000, 1.000000000000000000 ) ) ;
#140 = VERTEX_POINT ( 'NONE', #66 ) ;
#141 = APPLICATION_PROTOCOL_DEFINITION ( 'international standard', 'config_control_design', 1994, #166 ) ;
#142 = FACE_OUTER_BOUND ( 'NONE', #215, .T. ) ;
#143 = PERSON_AND_ORGANIZATION_ROLE ( 'design_owner' ) ;
#144 = AXIS2_PLACEMENT_3D ( 'NONE', #213, #17, #171 ) ;
#145 = COORDINATED_UNIVERSAL_TIME_OFFSET ( 1, 0, .AHEAD. ) ;
#146 = APPROVAL_DATE_TIME ( #41, #5 ) ;
#147 = CC_DESIGN_PERSON_AND_ORGANIZATION_ASSIGNMENT ( #40, #42, ( #183 ) ) ;
#148 = APPROVAL_STATUS ( 'not_yet_approved' ) ;
#149 = EDGE_CURVE ( 'NONE', #12, #50, #15, .T. ) ;
#150 = CIRCLE ( 'NONE', #2, 4.000000000000000000 ) ;
#151 = CARTESIAN_POINT ( 'NONE',  ( 0.000000000000000000, 0.000000000000000000, 3.000000000000000000 ) ) ;
#152 = DIRECTION ( 'NONE',  ( 0.000000000000000000, 0.000000000000000000, 1.000000000000000000 ) ) ;
#153 = DIRECTION ( 'NONE',  ( 0.000000000000000000, 0.000000000000000000, 1.000000000000000000 ) ) ;
#154 = VERTEX_POINT ( 'NONE', #10 ) ;
#155 = APPROVAL_ROLE ( '' ) ;
#156 = FACE_BOUND ( 'NONE', #244, .T. ) ;
#157 = EDGE_LOOP ( 'NONE', ( #159, #121 ) ) ;
#158 = DIRECTION ( 'NONE',  ( -0.000000000000000000, -0.000000000000000000, -1.000000000000000000 ) ) ;
#159 = ORIENTED_EDGE ( 'NONE', *, *, #220, .T. ) ;
#160 = DIRECTION ( 'NONE',  ( 1.000000000000000000, 0.000000000000000000, -0.000000000000000000 ) ) ;
#161 = DATE_AND_TIME ( #196, #217 ) ;
#162 = PERSON_AND_ORGANIZATION ( #197, #59 ) ;
#163 = CC_DESIGN_APPROVAL ( #95, ( #79 ) ) ;
#164 = VECTOR ( 'NONE', #189, 1000.000000000000000 ) ;
#165 = DIRECTION ( 'NONE',  ( -0.000000000000000000, -0.000000000000000000, -1.000000000000000000 ) ) ;
#166 = APPLICATION_CONTEXT ( 'configuration controlled 3d designs of mechanical parts and assemblies' ) ;
#167 = EDGE_CURVE ( 'NONE', #140, #207, #4, .T. ) ;
#168 = CARTESIAN_POINT ( 'NONE',  ( 0.000000000000000000, 0.000000000000000000, 3.000000000000000000 ) ) ;
#169 = CIRCLE ( 'NONE', #138, 4.000000000000000000 ) ;
#170 = FACE_OUTER_BOUND ( 'NONE', #33, .T. ) ;
#171 = DIRECTION ( 'NONE',  ( -1.000000000000000000, 0.000000000000000000, 0.000000000000000000 ) ) ;
#172 = LINE ( 'NONE', #247, #164 ) ;
#173 = CIRCLE ( 'NONE', #101, 2.000000000000000000 ) ;
#174 = FACE_OUTER_BOUND ( 'NONE', #94, .T. ) ;
#175 =( GEOMETRIC_REPRESENTATION_CONTEXT ( 3 ) GLOBAL_UNCERTAINTY_ASSIGNED_CONTEXT ( ( #29 ) ) GLOBAL_UNIT_ASSIGNED_CONTEXT ( ( #34, #122, #114 ) ) REPRESENTATION_CONTEXT ( 'NONE', 'WORKASPACE' ) );
#176 = MECHANICAL_CONTEXT ( 'NONE', #166, 'mechanical' ) ;
#177 = ORIENTED_EDGE ( 'NONE', *, *, #60, .F. ) ;
#178 = CARTESIAN_POINT ( 'NONE',  ( 0.000000000000000000, 0.000000000000000000, 0.000000000000000000 ) ) ;
#179 = PRODUCT_RELATED_PRODUCT_CATEGORY ( 'detail', '', ( #232 ) ) ;
#180 = PERSON_AND_ORGANIZATION_ROLE ( 'classification_officer' ) ;
#181 = DATE_AND_TIME ( #236, #200 ) ;
#182 = AXIS2_PLACEMENT_3D ( 'NONE', #55, #120, #160 ) ;
#183 = PRODUCT_DEFINITION ( 'NEZNÁMÝ', '', #79, #240 ) ;
#184 = DIRECTION ( 'NONE',  ( -1.000000000000000000, 0.000000000000000000, 0.000000000000000000 ) ) ;
#185 = CARTESIAN_POINT ( 'NONE',  ( 2.000000000000000000, 2.449293598294706414E-16, 103.0000000000000142 ) ) ;
#186 = LOCAL_TIME ( 19, 52, 45.00000000000000000, #117 ) ;
#187 = ORIENTED_EDGE ( 'NONE', *, *, #195, .F. ) ;
#188 = DIRECTION ( 'NONE',  ( 1.000000000000000000, 0.000000000000000000, 0.000000000000000000 ) ) ;
#189 = DIRECTION ( 'NONE',  ( -0.000000000000000000, -0.000000000000000000, -1.000000000000000000 ) ) ;
#190 = PLANE ( 'NONE',  #182 ) ;
#191 = CARTESIAN_POINT ( 'NONE',  ( 0.000000000000000000, 0.000000000000000000, 0.000000000000000000 ) ) ;
#192 = ORIENTED_EDGE ( 'NONE', *, *, #107, .F. ) ;
#193 = EDGE_LOOP ( 'NONE', ( #229, #192 ) ) ;
#194 = CARTESIAN_POINT ( 'NONE',  ( 0.000000000000000000, 0.000000000000000000, 3.000000000000000000 ) ) ;
#195 = EDGE_CURVE ( 'NONE', #154, #57, #208, .T. ) ;
#196 = CALENDAR_DATE ( 2022, 7, 7 ) ;
#197 = PERSON ( 'NEURÈENÝ', 'NEURÈENÝ', 'NEURÈENÝ', ('NEURÈENÝ'), ('NEURÈENÝ'), ('NEURÈENÝ') ) ;
#198 = CLOSED_SHELL ( 'NONE', ( #56, #136, #253, #65, #100, #84, #237 ) ) ;
#199 = CC_DESIGN_PERSON_AND_ORGANIZATION_ASSIGNMENT ( #162, #61, ( #79 ) ) ;
#200 = LOCAL_TIME ( 19, 52, 45.00000000000000000, #254 ) ;
#201 = CC_DESIGN_APPROVAL ( #20, ( #62 ) ) ;
#202 = CARTESIAN_POINT ( 'NONE',  ( 2.000000000000000000, 2.449293598294706414E-16, 3.000000000000000000 ) ) ;
#203 = CARTESIAN_POINT ( 'NONE',  ( 0.000000000000000000, 0.000000000000000000, 3.000000000000000000 ) ) ;
#204 = ORIENTED_EDGE ( 'NONE', *, *, #105, .F. ) ;
#205 = FACE_OUTER_BOUND ( 'NONE', #193, .T. ) ;
#206 = VECTOR ( 'NONE', #228, 1000.000000000000000 ) ;
#207 = VERTEX_POINT ( 'NONE', #76 ) ;
#208 = LINE ( 'NONE', #212, #206 ) ;
#209 = EDGE_CURVE ( 'NONE', #251, #9, #230, .T. ) ;
#210 = DIRECTION ( 'NONE',  ( 0.000000000000000000, 0.000000000000000000, 1.000000000000000000 ) ) ;
#211 = ORIENTED_EDGE ( 'NONE', *, *, #220, .F. ) ;
#212 = CARTESIAN_POINT ( 'NONE',  ( 4.000000000000000000, 4.898587196589412829E-16, 3.000000000000000000 ) ) ;
#213 = CARTESIAN_POINT ( 'NONE',  ( 0.000000000000000000, 0.000000000000000000, 3.000000000000000000 ) ) ;
#214 = AXIS2_PLACEMENT_3D ( 'NONE', #243, #139, #242 ) ;
#215 = EDGE_LOOP ( 'NONE', ( #187, #211, #91, #116 ) ) ;
#216 = CALENDAR_DATE ( 2022, 7, 7 ) ;
#217 = LOCAL_TIME ( 19, 52, 45.00000000000000000, #103 ) ;
#218 = APPLICATION_CONTEXT ( 'configuration controlled 3d designs of mechanical parts and assemblies' ) ;
#219 = PERSON_AND_ORGANIZATION ( #197, #59 ) ;
#220 = EDGE_CURVE ( 'NONE', #251, #154, #169, .T. ) ;
#221 = CC_DESIGN_PERSON_AND_ORGANIZATION_ASSIGNMENT ( #235, #180, ( #62 ) ) ;
#222 = LOCAL_TIME ( 19, 52, 45.00000000000000000, #106 ) ;
#223 = DIRECTION ( 'NONE',  ( 0.000000000000000000, 0.000000000000000000, 1.000000000000000000 ) ) ;
#224 = DIRECTION ( 'NONE',  ( -1.000000000000000000, 0.000000000000000000, 0.000000000000000000 ) ) ;
#225 = DIRECTION ( 'NONE',  ( 0.000000000000000000, 0.000000000000000000, 1.000000000000000000 ) ) ;
#226 = CARTESIAN_POINT ( 'NONE',  ( 0.000000000000000000, 0.000000000000000000, 0.000000000000000000 ) ) ;
#227 = ORIENTED_EDGE ( 'NONE', *, *, #21, .F. ) ;
#228 = DIRECTION ( 'NONE',  ( -0.000000000000000000, -0.000000000000000000, -1.000000000000000000 ) ) ;
#229 = ORIENTED_EDGE ( 'NONE', *, *, #128, .F. ) ;
#230 = LINE ( 'NONE', #252, #102 ) ;
#231 = ORIENTED_EDGE ( 'NONE', *, *, #38, .T. ) ;
#232 = PRODUCT ( 'e44b', 'e44b', '', ( #176 ) ) ;
#233 = PERSON_AND_ORGANIZATION ( #197, #59 ) ;
#234 = DATE_AND_TIME ( #1, #109 ) ;
#235 = PERSON_AND_ORGANIZATION ( #197, #59 ) ;
#236 = CALENDAR_DATE ( 2022, 7, 7 ) ;
#237 = ADVANCED_FACE ( 'NONE', ( #32 ), #190, .T. ) ;
#238 = APPROVAL_DATE_TIME ( #234, #95 ) ;
#239 = AXIS2_PLACEMENT_3D ( 'NONE', #168, #152, #93 ) ;
#240 = DESIGN_CONTEXT ( 'detailed design', #218, 'design' ) ;
#241 = DIRECTION ( 'NONE',  ( -1.000000000000000000, 0.000000000000000000, 0.000000000000000000 ) ) ;
#242 = DIRECTION ( 'NONE',  ( 1.000000000000000000, 0.000000000000000000, -0.000000000000000000 ) ) ;
#243 = CARTESIAN_POINT ( 'NONE',  ( 0.000000000000000000, 0.000000000000000000, 3.000000000000000000 ) ) ;
#244 = EDGE_LOOP ( 'NONE', ( #75, #28 ) ) ;
#245 = CC_DESIGN_DATE_AND_TIME_ASSIGNMENT ( #161, #19, ( #183 ) ) ;
#246 = APPLICATION_PROTOCOL_DEFINITION ( 'international standard', 'config_control_design', 1994, #218 ) ;
#247 = CARTESIAN_POINT ( 'NONE',  ( -2.000000000000000000, 0.000000000000000000, 103.0000000000000142 ) ) ;
#248 = PERSON_AND_ORGANIZATION ( #197, #59 ) ;
#249 = AXIS2_PLACEMENT_3D ( 'NONE', #74, #165, #241 ) ;
#250 = CYLINDRICAL_SURFACE ( 'NONE', #249, 4.000000000000000000 ) ;
#251 = VERTEX_POINT ( 'NONE', #124 ) ;
#252 = CARTESIAN_POINT ( 'NONE',  ( -4.000000000000000000, 0.000000000000000000, 3.000000000000000000 ) ) ;
#253 = ADVANCED_FACE ( 'NONE', ( #142 ), #58, .T. ) ;
#254 = COORDINATED_UNIVERSAL_TIME_OFFSET ( 1, 0, .AHEAD. ) ;
#255 = APPROVAL_STATUS ( 'not_yet_approved' ) ;
ENDSEC;
END-ISO-10303-21;
