ISO-10303-21;
HEADER;
FILE_DESCRIPTION (( 'STEP AP203' ),
    '1' );
FILE_NAME ('3445.STEP',
    '2022-07-07T17:53:16',
    ( '' ),
    ( '' ),
    'SwSTEP 2.0',
    'SolidWorks 2019',
    '' );
FILE_SCHEMA (( 'CONFIG_CONTROL_DESIGN' ));
ENDSEC;

DATA;
#1 = VECTOR ( 'NONE', #214, 1000.000000000000000 ) ;
#2 = ADVANCED_FACE ( 'NONE', ( #152 ), #233, .T. ) ;
#3 = COORDINATED_UNIVERSAL_TIME_OFFSET ( 1, 0, .AHEAD. ) ;
#4 = LOCAL_TIME ( 19, 53, 16.00000000000000000, #3 ) ;
#5 = EDGE_CURVE ( 'NONE', #193, #231, #250, .T. ) ;
#6 = VERTEX_POINT ( 'NONE', #189 ) ;
#7 = CARTESIAN_POINT ( 'NONE',  ( -3.500000000000000000, 0.000000000000000000, 0.000000000000000000 ) ) ;
#8 = FACE_OUTER_BOUND ( 'NONE', #242, .T. ) ;
#9 = ORIENTED_EDGE ( 'NONE', *, *, #223, .F. ) ;
#10 = CARTESIAN_POINT ( 'NONE',  ( 0.000000000000000000, 0.000000000000000000, 3.000000000000000000 ) ) ;
#11 = ORIENTED_EDGE ( 'NONE', *, *, #157, .T. ) ;
#12 = CARTESIAN_POINT ( 'NONE',  ( -3.500000000000000000, 0.000000000000000000, 3.000000000000000000 ) ) ;
#13 = EDGE_LOOP ( 'NONE', ( #45, #130, #11, #65 ) ) ;
#14 = DIRECTION ( 'NONE',  ( 1.000000000000000000, 0.000000000000000000, 0.000000000000000000 ) ) ;
#15 = AXIS2_PLACEMENT_3D ( 'NONE', #10, #211, #204 ) ;
#16 = PERSON_AND_ORGANIZATION_ROLE ( 'design_owner' ) ;
#17 = PERSON_AND_ORGANIZATION ( #100, #179 ) ;
#18 = CARTESIAN_POINT ( 'NONE',  ( 1.750000000000000000, 2.143131898507868297E-16, 318.0000000000000000 ) ) ;
#19 = DATE_TIME_ROLE ( 'classification_date' ) ;
#20 = EDGE_CURVE ( 'NONE', #92, #225, #94, .T. ) ;
#21 = DATE_AND_TIME ( #238, #4 ) ;
#22 = DIRECTION ( 'NONE',  ( 0.000000000000000000, 0.000000000000000000, 1.000000000000000000 ) ) ;
#23 = ORIENTED_EDGE ( 'NONE', *, *, #190, .F. ) ;
#24 = LOCAL_TIME ( 19, 53, 16.00000000000000000, #38 ) ;
#25 = PLANE ( 'NONE',  #42 ) ;
#26 = ORIENTED_EDGE ( 'NONE', *, *, #223, .T. ) ;
#27 = APPROVAL ( #255, 'NEURÈENÝ' ) ;
#28 = DIRECTION ( 'NONE',  ( 0.000000000000000000, 0.000000000000000000, 1.000000000000000000 ) ) ;
#29 = ORIENTED_EDGE ( 'NONE', *, *, #98, .F. ) ;
#30 = CARTESIAN_POINT ( 'NONE',  ( 3.500000000000000000, 4.286263797015736595E-16, 0.000000000000000000 ) ) ;
#31 = ORIENTED_EDGE ( 'NONE', *, *, #190, .T. ) ;
#32 = DIRECTION ( 'NONE',  ( -0.000000000000000000, -0.000000000000000000, -1.000000000000000000 ) ) ;
#33 = LINE ( 'NONE', #156, #52 ) ;
#34 =( NAMED_UNIT ( * ) PLANE_ANGLE_UNIT ( ) SI_UNIT ( $, .RADIAN. ) );
#35 = DIRECTION ( 'NONE',  ( -1.000000000000000000, 0.000000000000000000, 0.000000000000000000 ) ) ;
#36 = PERSON_AND_ORGANIZATION ( #100, #179 ) ;
#37 = PERSON_AND_ORGANIZATION ( #100, #179 ) ;
#38 = COORDINATED_UNIVERSAL_TIME_OFFSET ( 1, 0, .AHEAD. ) ;
#39 = ADVANCED_FACE ( 'NONE', ( #148, #129 ), #167, .T. ) ;
#40 = EDGE_CURVE ( 'NONE', #225, #62, #125, .T. ) ;
#41 = ORIENTED_EDGE ( 'NONE', *, *, #248, .T. ) ;
#42 = AXIS2_PLACEMENT_3D ( 'NONE', #91, #187, #133 ) ;
#43 = EDGE_LOOP ( 'NONE', ( #23, #29 ) ) ;
#44 = DIRECTION ( 'NONE',  ( 1.000000000000000000, 0.000000000000000000, 0.000000000000000000 ) ) ;
#45 = ORIENTED_EDGE ( 'NONE', *, *, #20, .F. ) ;
#46 = PLANE ( 'NONE',  #226 ) ;
#47 = EDGE_LOOP ( 'NONE', ( #114, #112, #247, #84 ) ) ;
#48 = APPROVAL ( #197, 'NEURÈENÝ' ) ;
#49 = FACE_OUTER_BOUND ( 'NONE', #207, .T. ) ;
#50 = DIRECTION ( 'NONE',  ( 0.000000000000000000, 0.000000000000000000, 1.000000000000000000 ) ) ;
#51 = CYLINDRICAL_SURFACE ( 'NONE', #218, 3.500000000000000000 ) ;
#52 = VECTOR ( 'NONE', #234, 1000.000000000000000 ) ;
#53 = CARTESIAN_POINT ( 'NONE',  ( -1.750000000000000000, 0.000000000000000000, 318.0000000000000000 ) ) ;
#54 = DIRECTION ( 'NONE',  ( 0.000000000000000000, 0.000000000000000000, 1.000000000000000000 ) ) ;
#55 = CIRCLE ( 'NONE', #235, 3.500000000000000000 ) ;
#56 = PERSON_AND_ORGANIZATION_ROLE ( 'design_supplier' ) ;
#57 = APPROVAL_PERSON_ORGANIZATION ( #96, #27, #239 ) ;
#58 = LINE ( 'NONE', #216, #106 ) ;
#59 = PERSON_AND_ORGANIZATION ( #100, #179 ) ;
#60 = LOCAL_TIME ( 19, 53, 16.00000000000000000, #79 ) ;
#61 = CC_DESIGN_APPROVAL ( #27, ( #183 ) ) ;
#62 = VERTEX_POINT ( 'NONE', #7 ) ;
#63 = FACE_OUTER_BOUND ( 'NONE', #108, .T. ) ;
#64 = DIRECTION ( 'NONE',  ( 1.000000000000000000, 0.000000000000000000, 0.000000000000000000 ) ) ;
#65 = ORIENTED_EDGE ( 'NONE', *, *, #40, .F. ) ;
#66 = CIRCLE ( 'NONE', #101, 3.500000000000000000 ) ;
#67 = APPROVAL ( #141, 'NEURÈENÝ' ) ;
#68 = DIRECTION ( 'NONE',  ( 0.000000000000000000, 0.000000000000000000, 1.000000000000000000 ) ) ;
#69 = MANIFOLD_SOLID_BREP ( 'Pøidat vysunutím3', #210 ) ;
#70 = CARTESIAN_POINT ( 'NONE',  ( 0.000000000000000000, 0.000000000000000000, 318.0000000000000000 ) ) ;
#71 = AXIS2_PLACEMENT_3D ( 'NONE', #166, #169, #228 ) ;
#72 = ADVANCED_FACE ( 'NONE', ( #63 ), #25, .F. ) ;
#73 = CARTESIAN_POINT ( 'NONE',  ( -3.500000000000000000, 0.000000000000000000, 3.000000000000000000 ) ) ;
#74 = DIRECTION ( 'NONE',  ( 1.000000000000000000, 0.000000000000000000, 0.000000000000000000 ) ) ;
#75 = DIRECTION ( 'NONE',  ( 0.000000000000000000, 0.000000000000000000, 1.000000000000000000 ) ) ;
#76 = ADVANCED_FACE ( 'NONE', ( #8 ), #230, .T. ) ;
#77 = COORDINATED_UNIVERSAL_TIME_OFFSET ( 1, 0, .AHEAD. ) ;
#78 = FACE_OUTER_BOUND ( 'NONE', #13, .T. ) ;
#79 = COORDINATED_UNIVERSAL_TIME_OFFSET ( 1, 0, .AHEAD. ) ;
#80 = PERSON_AND_ORGANIZATION ( #100, #179 ) ;
#81 = CC_DESIGN_DATE_AND_TIME_ASSIGNMENT ( #105, #19, ( #183 ) ) ;
#82 = LOCAL_TIME ( 19, 53, 16.00000000000000000, #77 ) ;
#83 = AXIS2_PLACEMENT_3D ( 'NONE', #254, #217, #97 ) ;
#84 = ORIENTED_EDGE ( 'NONE', *, *, #200, .T. ) ;
#85 = DIRECTION ( 'NONE',  ( 0.000000000000000000, 0.000000000000000000, 1.000000000000000000 ) ) ;
#86 = CARTESIAN_POINT ( 'NONE',  ( 0.000000000000000000, 0.000000000000000000, 318.0000000000000000 ) ) ;
#87 = VERTEX_POINT ( 'NONE', #192 ) ;
#88 = DIRECTION ( 'NONE',  ( 1.000000000000000000, 0.000000000000000000, 0.000000000000000000 ) ) ;
#89 = ORIENTED_EDGE ( 'NONE', *, *, #98, .T. ) ;
#90 = AXIS2_PLACEMENT_3D ( 'NONE', #251, #54, #74 ) ;
#91 = CARTESIAN_POINT ( 'NONE',  ( 0.000000000000000000, 0.000000000000000000, 0.000000000000000000 ) ) ;
#92 = VERTEX_POINT ( 'NONE', #111 ) ;
#93 = DIRECTION ( 'NONE',  ( -1.000000000000000000, 0.000000000000000000, 0.000000000000000000 ) ) ;
#94 = CIRCLE ( 'NONE', #241, 3.500000000000000000 ) ;
#95 = CARTESIAN_POINT ( 'NONE',  ( -1.750000000000000000, 0.000000000000000000, 318.0000000000000000 ) ) ;
#96 = PERSON_AND_ORGANIZATION ( #100, #179 ) ;
#97 = DIRECTION ( 'NONE',  ( 1.000000000000000000, 0.000000000000000000, 0.000000000000000000 ) ) ;
#98 = EDGE_CURVE ( 'NONE', #87, #6, #123, .T. ) ;
#99 = CALENDAR_DATE ( 2022, 7, 7 ) ;
#100 = PERSON ( 'NEURÈENÝ', 'NEURÈENÝ', 'NEURÈENÝ', ('NEURÈENÝ'), ('NEURÈENÝ'), ('NEURÈENÝ') ) ;
#101 = AXIS2_PLACEMENT_3D ( 'NONE', #208, #28, #151 ) ;
#102 = PERSON_AND_ORGANIZATION_ROLE ( 'creator' ) ;
#103 = CC_DESIGN_APPROVAL ( #48, ( #184 ) ) ;
#104 = AXIS2_PLACEMENT_3D ( 'NONE', #86, #246, #88 ) ;
#105 = DATE_AND_TIME ( #236, #82 ) ;
#106 = VECTOR ( 'NONE', #142, 1000.000000000000000 ) ;
#107 = DIRECTION ( 'NONE',  ( 0.000000000000000000, 0.000000000000000000, 1.000000000000000000 ) ) ;
#108 = EDGE_LOOP ( 'NONE', ( #163, #209 ) ) ;
#109 = CC_DESIGN_PERSON_AND_ORGANIZATION_ASSIGNMENT ( #17, #56, ( #164 ) ) ;
#110 = DIRECTION ( 'NONE',  ( 1.000000000000000000, 0.000000000000000000, -0.000000000000000000 ) ) ;
#111 = CARTESIAN_POINT ( 'NONE',  ( 3.500000000000000000, 4.286263797015736595E-16, 3.000000000000000000 ) ) ;
#112 = ORIENTED_EDGE ( 'NONE', *, *, #162, .F. ) ;
#113 = DIRECTION ( 'NONE',  ( 1.000000000000000000, 0.000000000000000000, 0.000000000000000000 ) ) ;
#114 = ORIENTED_EDGE ( 'NONE', *, *, #203, .F. ) ;
#115 = PRODUCT_RELATED_PRODUCT_CATEGORY ( 'detail', '', ( #213 ) ) ;
#116 = AXIS2_PLACEMENT_3D ( 'NONE', #176, #75, #14 ) ;
#117 =( NAMED_UNIT ( * ) SI_UNIT ( $, .STERADIAN. ) SOLID_ANGLE_UNIT ( ) );
#118 = APPLICATION_CONTEXT ( 'configuration controlled 3d designs of mechanical parts and assemblies' ) ;
#119 = COORDINATED_UNIVERSAL_TIME_OFFSET ( 1, 0, .AHEAD. ) ;
#120 = APPROVAL_ROLE ( '' ) ;
#121 = EDGE_CURVE ( 'NONE', #231, #193, #195, .T. ) ;
#122 = APPROVAL_ROLE ( '' ) ;
#123 = CIRCLE ( 'NONE', #15, 1.750000000000000000 ) ;
#124 = AXIS2_PLACEMENT_3D ( 'NONE', #165, #107, #110 ) ;
#125 = LINE ( 'NONE', #12, #240 ) ;
#126 = ORIENTED_EDGE ( 'NONE', *, *, #5, .T. ) ;
#127 = CC_DESIGN_PERSON_AND_ORGANIZATION_ASSIGNMENT ( #36, #16, ( #213 ) ) ;
#128 = DESIGN_CONTEXT ( 'detailed design', #173, 'design' ) ;
#129 = FACE_OUTER_BOUND ( 'NONE', #245, .T. ) ;
#130 = ORIENTED_EDGE ( 'NONE', *, *, #203, .T. ) ;
#131 = CARTESIAN_POINT ( 'NONE',  ( 0.000000000000000000, 0.000000000000000000, 318.0000000000000000 ) ) ;
#132 = CC_DESIGN_DATE_AND_TIME_ASSIGNMENT ( #155, #253, ( #184 ) ) ;
#133 = DIRECTION ( 'NONE',  ( 1.000000000000000000, 0.000000000000000000, -0.000000000000000000 ) ) ;
#134 = ORIENTED_EDGE ( 'NONE', *, *, #248, .F. ) ;
#135 = DIRECTION ( 'NONE',  ( -1.000000000000000000, 0.000000000000000000, 0.000000000000000000 ) ) ;
#136 = CARTESIAN_POINT ( 'NONE',  ( 0.000000000000000000, 0.000000000000000000, 3.000000000000000000 ) ) ;
#137 =( LENGTH_UNIT ( ) NAMED_UNIT ( * ) SI_UNIT ( .MILLI., .METRE. ) );
#138 = APPLICATION_PROTOCOL_DEFINITION ( 'international standard', 'config_control_design', 1994, #118 ) ;
#139 = AXIS2_PLACEMENT_3D ( 'NONE', #70, #32, #135 ) ;
#140 = PERSON_AND_ORGANIZATION ( #100, #179 ) ;
#141 = APPROVAL_STATUS ( 'not_yet_approved' ) ;
#142 = DIRECTION ( 'NONE',  ( -0.000000000000000000, -0.000000000000000000, -1.000000000000000000 ) ) ;
#143 = CC_DESIGN_PERSON_AND_ORGANIZATION_ASSIGNMENT ( #80, #175, ( #184 ) ) ;
#144 = AXIS2_PLACEMENT_3D ( 'NONE', #131, #50, #44 ) ;
#145 = AXIS2_PLACEMENT_3D ( 'NONE', #136, #194, #35 ) ;
#146 = ADVANCED_FACE ( 'NONE', ( #49 ), #46, .T. ) ;
#147 =( GEOMETRIC_REPRESENTATION_CONTEXT ( 3 ) GLOBAL_UNCERTAINTY_ASSIGNED_CONTEXT ( ( #227 ) ) GLOBAL_UNIT_ASSIGNED_CONTEXT ( ( #137, #34, #117 ) ) REPRESENTATION_CONTEXT ( 'NONE', 'WORKASPACE' ) );
#148 = FACE_BOUND ( 'NONE', #43, .T. ) ;
#149 = VERTEX_POINT ( 'NONE', #30 ) ;
#150 = ORIENTED_EDGE ( 'NONE', *, *, #121, .T. ) ;
#151 = DIRECTION ( 'NONE',  ( 1.000000000000000000, 0.000000000000000000, 0.000000000000000000 ) ) ;
#152 = FACE_OUTER_BOUND ( 'NONE', #191, .T. ) ;
#153 = CC_DESIGN_PERSON_AND_ORGANIZATION_ASSIGNMENT ( #199, #102, ( #164 ) ) ;
#154 = APPLICATION_PROTOCOL_DEFINITION ( 'international standard', 'config_control_design', 1994, #173 ) ;
#155 = DATE_AND_TIME ( #99, #24 ) ;
#156 = CARTESIAN_POINT ( 'NONE',  ( 3.500000000000000000, 4.286263797015736595E-16, 3.000000000000000000 ) ) ;
#157 = EDGE_CURVE ( 'NONE', #149, #62, #55, .T. ) ;
#158 = APPROVAL_DATE_TIME ( #182, #27 ) ;
#159 = PERSON_AND_ORGANIZATION_ROLE ( 'classification_officer' ) ;
#160 = APPROVAL_DATE_TIME ( #178, #48 ) ;
#161 = APPROVAL_PERSON_ORGANIZATION ( #59, #67, #120 ) ;
#162 = EDGE_CURVE ( 'NONE', #225, #92, #66, .T. ) ;
#163 = ORIENTED_EDGE ( 'NONE', *, *, #200, .F. ) ;
#164 = PRODUCT_DEFINITION_FORMATION_WITH_SPECIFIED_SOURCE ( 'LIBOVOLNÝ', '', #213, .NOT_KNOWN. ) ;
#165 = CARTESIAN_POINT ( 'NONE',  ( 0.000000000000000000, 0.000000000000000000, 3.000000000000000000 ) ) ;
#166 = CARTESIAN_POINT ( 'NONE',  ( 0.000000000000000000, 0.000000000000000000, 318.0000000000000000 ) ) ;
#167 = PLANE ( 'NONE',  #124 ) ;
#168 = CC_DESIGN_APPROVAL ( #67, ( #164 ) ) ;
#169 = DIRECTION ( 'NONE',  ( -0.000000000000000000, -0.000000000000000000, -1.000000000000000000 ) ) ;
#170 = CYLINDRICAL_SURFACE ( 'NONE', #145, 3.500000000000000000 ) ;
#171 = ADVANCED_FACE ( 'NONE', ( #232 ), #51, .T. ) ;
#172 = CIRCLE ( 'NONE', #116, 3.500000000000000000 ) ;
#173 = APPLICATION_CONTEXT ( 'configuration controlled 3d designs of mechanical parts and assemblies' ) ;
#174 = MECHANICAL_CONTEXT ( 'NONE', #118, 'mechanical' ) ;
#175 = PERSON_AND_ORGANIZATION_ROLE ( 'creator' ) ;
#176 = CARTESIAN_POINT ( 'NONE',  ( 0.000000000000000000, 0.000000000000000000, 0.000000000000000000 ) ) ;
#177 = CC_DESIGN_PERSON_AND_ORGANIZATION_ASSIGNMENT ( #37, #159, ( #183 ) ) ;
#178 = DATE_AND_TIME ( #198, #202 ) ;
#179 = ORGANIZATION ( 'NEURÈENÝ', 'NEURÈENÝ', '' ) ;
#180 = CALENDAR_DATE ( 2022, 7, 7 ) ;
#181 = ADVANCED_BREP_SHAPE_REPRESENTATION ( '3445', ( #69, #90 ), #147 ) ;
#182 = DATE_AND_TIME ( #180, #60 ) ;
#183 = SECURITY_CLASSIFICATION ( '', '', #219 ) ;
#184 = PRODUCT_DEFINITION ( 'NEZNÁMÝ', '', #164, #128 ) ;
#185 = ORIENTED_EDGE ( 'NONE', *, *, #5, .F. ) ;
#186 = DIRECTION ( 'NONE',  ( 1.000000000000000000, 0.000000000000000000, -0.000000000000000000 ) ) ;
#187 = DIRECTION ( 'NONE',  ( 0.000000000000000000, 0.000000000000000000, 1.000000000000000000 ) ) ;
#188 = PRODUCT_DEFINITION_SHAPE ( 'NONE', 'NONE',  #184 ) ;
#189 = CARTESIAN_POINT ( 'NONE',  ( -1.750000000000000000, 0.000000000000000000, 3.000000000000000000 ) ) ;
#190 = EDGE_CURVE ( 'NONE', #6, #87, #224, .T. ) ;
#191 = EDGE_LOOP ( 'NONE', ( #229, #26, #89, #134 ) ) ;
#192 = CARTESIAN_POINT ( 'NONE',  ( 1.750000000000000000, 2.143131898507868297E-16, 3.000000000000000000 ) ) ;
#193 = VERTEX_POINT ( 'NONE', #53 ) ;
#194 = DIRECTION ( 'NONE',  ( -0.000000000000000000, -0.000000000000000000, -1.000000000000000000 ) ) ;
#195 = CIRCLE ( 'NONE', #104, 1.750000000000000000 ) ;
#196 = APPROVAL_PERSON_ORGANIZATION ( #140, #48, #122 ) ;
#197 = APPROVAL_STATUS ( 'not_yet_approved' ) ;
#198 = CALENDAR_DATE ( 2022, 7, 7 ) ;
#199 = PERSON_AND_ORGANIZATION ( #100, #179 ) ;
#200 = EDGE_CURVE ( 'NONE', #62, #149, #172, .T. ) ;
#201 = SHAPE_DEFINITION_REPRESENTATION ( #188, #181 ) ;
#202 = LOCAL_TIME ( 19, 53, 16.00000000000000000, #119 ) ;
#203 = EDGE_CURVE ( 'NONE', #92, #149, #33, .T. ) ;
#204 = DIRECTION ( 'NONE',  ( 1.000000000000000000, 0.000000000000000000, 0.000000000000000000 ) ) ;
#205 = ORIENTED_EDGE ( 'NONE', *, *, #162, .T. ) ;
#206 = CARTESIAN_POINT ( 'NONE',  ( 0.000000000000000000, 0.000000000000000000, 3.000000000000000000 ) ) ;
#207 = EDGE_LOOP ( 'NONE', ( #126, #150 ) ) ;
#208 = CARTESIAN_POINT ( 'NONE',  ( 0.000000000000000000, 0.000000000000000000, 3.000000000000000000 ) ) ;
#209 = ORIENTED_EDGE ( 'NONE', *, *, #157, .F. ) ;
#210 = CLOSED_SHELL ( 'NONE', ( #2, #215, #171, #39, #72, #76, #146 ) ) ;
#211 = DIRECTION ( 'NONE',  ( 0.000000000000000000, 0.000000000000000000, 1.000000000000000000 ) ) ;
#212 = ORIENTED_EDGE ( 'NONE', *, *, #20, .T. ) ;
#213 = PRODUCT ( '3445', '3445', '', ( #174 ) ) ;
#214 = DIRECTION ( 'NONE',  ( -0.000000000000000000, -0.000000000000000000, -1.000000000000000000 ) ) ;
#215 = ADVANCED_FACE ( 'NONE', ( #78 ), #170, .T. ) ;
#216 = CARTESIAN_POINT ( 'NONE',  ( 1.750000000000000000, 2.143131898507868297E-16, 318.0000000000000000 ) ) ;
#217 = DIRECTION ( 'NONE',  ( 0.000000000000000000, 0.000000000000000000, 1.000000000000000000 ) ) ;
#218 = AXIS2_PLACEMENT_3D ( 'NONE', #252, #237, #93 ) ;
#219 = SECURITY_CLASSIFICATION_LEVEL ( 'unclassified' ) ;
#220 = LINE ( 'NONE', #95, #1 ) ;
#221 = APPROVAL_DATE_TIME ( #21, #67 ) ;
#222 = CC_DESIGN_SECURITY_CLASSIFICATION ( #183, ( #164 ) ) ;
#223 = EDGE_CURVE ( 'NONE', #231, #87, #58, .T. ) ;
#224 = CIRCLE ( 'NONE', #83, 1.750000000000000000 ) ;
#225 = VERTEX_POINT ( 'NONE', #73 ) ;
#226 = AXIS2_PLACEMENT_3D ( 'NONE', #244, #22, #186 ) ;
#227 = UNCERTAINTY_MEASURE_WITH_UNIT (LENGTH_MEASURE( 1.000000000000000082E-05 ), #137, 'distance_accuracy_value', 'NONE');
#228 = DIRECTION ( 'NONE',  ( -1.000000000000000000, 0.000000000000000000, 0.000000000000000000 ) ) ;
#229 = ORIENTED_EDGE ( 'NONE', *, *, #121, .F. ) ;
#230 = CYLINDRICAL_SURFACE ( 'NONE', #139, 1.750000000000000000 ) ;
#231 = VERTEX_POINT ( 'NONE', #18 ) ;
#232 = FACE_OUTER_BOUND ( 'NONE', #47, .T. ) ;
#233 = CYLINDRICAL_SURFACE ( 'NONE', #71, 1.750000000000000000 ) ;
#234 = DIRECTION ( 'NONE',  ( -0.000000000000000000, -0.000000000000000000, -1.000000000000000000 ) ) ;
#235 = AXIS2_PLACEMENT_3D ( 'NONE', #243, #68, #64 ) ;
#236 = CALENDAR_DATE ( 2022, 7, 7 ) ;
#237 = DIRECTION ( 'NONE',  ( -0.000000000000000000, -0.000000000000000000, -1.000000000000000000 ) ) ;
#238 = CALENDAR_DATE ( 2022, 7, 7 ) ;
#239 = APPROVAL_ROLE ( '' ) ;
#240 = VECTOR ( 'NONE', #249, 1000.000000000000000 ) ;
#241 = AXIS2_PLACEMENT_3D ( 'NONE', #206, #85, #113 ) ;
#242 = EDGE_LOOP ( 'NONE', ( #9, #185, #41, #31 ) ) ;
#243 = CARTESIAN_POINT ( 'NONE',  ( 0.000000000000000000, 0.000000000000000000, 0.000000000000000000 ) ) ;
#244 = CARTESIAN_POINT ( 'NONE',  ( 0.000000000000000000, 0.000000000000000000, 318.0000000000000000 ) ) ;
#245 = EDGE_LOOP ( 'NONE', ( #205, #212 ) ) ;
#246 = DIRECTION ( 'NONE',  ( 0.000000000000000000, 0.000000000000000000, 1.000000000000000000 ) ) ;
#247 = ORIENTED_EDGE ( 'NONE', *, *, #40, .T. ) ;
#248 = EDGE_CURVE ( 'NONE', #193, #6, #220, .T. ) ;
#249 = DIRECTION ( 'NONE',  ( -0.000000000000000000, -0.000000000000000000, -1.000000000000000000 ) ) ;
#250 = CIRCLE ( 'NONE', #144, 1.750000000000000000 ) ;
#251 = CARTESIAN_POINT ( 'NONE',  ( 0.000000000000000000, 0.000000000000000000, 0.000000000000000000 ) ) ;
#252 = CARTESIAN_POINT ( 'NONE',  ( 0.000000000000000000, 0.000000000000000000, 3.000000000000000000 ) ) ;
#253 = DATE_TIME_ROLE ( 'creation_date' ) ;
#254 = CARTESIAN_POINT ( 'NONE',  ( 0.000000000000000000, 0.000000000000000000, 3.000000000000000000 ) ) ;
#255 = APPROVAL_STATUS ( 'not_yet_approved' ) ;
ENDSEC;
END-ISO-10303-21;
