ISO-10303-21;
HEADER;
FILE_DESCRIPTION (( 'STEP AP203' ),
    '1' );
FILE_NAME ('8e25.STEP',
    '2022-07-07T17:57:52',
    ( '' ),
    ( '' ),
    'SwSTEP 2.0',
    'SolidWorks 2019',
    '' );
FILE_SCHEMA (( 'CONFIG_CONTROL_DESIGN' ));
ENDSEC;

DATA;
#1 = ORIENTED_EDGE ( 'NONE', *, *, #134, .F. ) ;
#2 = EDGE_LOOP ( 'NONE', ( #44, #85, #239, #88 ) ) ;
#3 = AXIS2_PLACEMENT_3D ( 'NONE', #42, #83, #100 ) ;
#4 = CARTESIAN_POINT ( 'NONE',  ( 0.000000000000000000, 0.000000000000000000, 2.000000000000000000 ) ) ;
#5 = CALENDAR_DATE ( 2022, 7, 7 ) ;
#6 = ORIENTED_EDGE ( 'NONE', *, *, #241, .F. ) ;
#7 = CC_DESIGN_DATE_AND_TIME_ASSIGNMENT ( #46, #29, ( #153 ) ) ;
#8 = CALENDAR_DATE ( 2022, 7, 7 ) ;
#9 = AXIS2_PLACEMENT_3D ( 'NONE', #81, #219, #18 ) ;
#10 = CARTESIAN_POINT ( 'NONE',  ( -2.500000000000000000, 0.000000000000000000, 2.000000000000000000 ) ) ;
#11 = CARTESIAN_POINT ( 'NONE',  ( 0.000000000000000000, 0.000000000000000000, 0.000000000000000000 ) ) ;
#12 = CALENDAR_DATE ( 2022, 7, 7 ) ;
#13 = DATE_AND_TIME ( #12, #27 ) ;
#14 = FACE_OUTER_BOUND ( 'NONE', #2, .T. ) ;
#15 = CC_DESIGN_PERSON_AND_ORGANIZATION_ASSIGNMENT ( #210, #196, ( #236 ) ) ;
#16 = CARTESIAN_POINT ( 'NONE',  ( 0.000000000000000000, 0.000000000000000000, 0.000000000000000000 ) ) ;
#17 = VECTOR ( 'NONE', #237, 1000.000000000000000 ) ;
#18 = DIRECTION ( 'NONE',  ( 1.000000000000000000, 0.000000000000000000, -0.000000000000000000 ) ) ;
#19 = EDGE_CURVE ( 'NONE', #203, #108, #119, .T. ) ;
#20 = DIRECTION ( 'NONE',  ( 1.000000000000000000, 0.000000000000000000, 0.000000000000000000 ) ) ;
#21 = PRODUCT_DEFINITION_SHAPE ( 'NONE', 'NONE',  #162 ) ;
#22 = APPROVAL_PERSON_ORGANIZATION ( #25, #176, #129 ) ;
#23 = VERTEX_POINT ( 'NONE', #145 ) ;
#24 = EDGE_LOOP ( 'NONE', ( #68, #125 ) ) ;
#25 = PERSON_AND_ORGANIZATION ( #117, #124 ) ;
#26 = VERTEX_POINT ( 'NONE', #163 ) ;
#27 = LOCAL_TIME ( 19, 57, 52.00000000000000000, #114 ) ;
#28 = EDGE_LOOP ( 'NONE', ( #1, #220 ) ) ;
#29 = DATE_TIME_ROLE ( 'classification_date' ) ;
#30 = PERSON_AND_ORGANIZATION_ROLE ( 'classification_officer' ) ;
#31 = ADVANCED_FACE ( 'NONE', ( #14 ), #57, .T. ) ;
#32 = AXIS2_PLACEMENT_3D ( 'NONE', #252, #250, #80 ) ;
#33 = CARTESIAN_POINT ( 'NONE',  ( 0.000000000000000000, 0.000000000000000000, 317.0000000000000000 ) ) ;
#34 = APPLICATION_PROTOCOL_DEFINITION ( 'international standard', 'config_control_design', 1994, #161 ) ;
#35 = CC_DESIGN_PERSON_AND_ORGANIZATION_ASSIGNMENT ( #226, #91, ( #61 ) ) ;
#36 = DIRECTION ( 'NONE',  ( 0.000000000000000000, 0.000000000000000000, 1.000000000000000000 ) ) ;
#37 = CARTESIAN_POINT ( 'NONE',  ( 0.000000000000000000, 0.000000000000000000, 2.000000000000000000 ) ) ;
#38 = FACE_OUTER_BOUND ( 'NONE', #24, .T. ) ;
#39 = CARTESIAN_POINT ( 'NONE',  ( 0.000000000000000000, 0.000000000000000000, 2.000000000000000000 ) ) ;
#40 = AXIS2_PLACEMENT_3D ( 'NONE', #39, #232, #200 ) ;
#41 = CYLINDRICAL_SURFACE ( 'NONE', #155, 2.500000000000000000 ) ;
#42 = CARTESIAN_POINT ( 'NONE',  ( 0.000000000000000000, 0.000000000000000000, 317.0000000000000000 ) ) ;
#43 = ADVANCED_FACE ( 'NONE', ( #253 ), #41, .T. ) ;
#44 = ORIENTED_EDGE ( 'NONE', *, *, #156, .F. ) ;
#45 = ORIENTED_EDGE ( 'NONE', *, *, #113, .F. ) ;
#46 = DATE_AND_TIME ( #5, #84 ) ;
#47 = PRODUCT_RELATED_PRODUCT_CATEGORY ( 'detail', '', ( #236 ) ) ;
#48 = ORIENTED_EDGE ( 'NONE', *, *, #234, .F. ) ;
#49 = PERSON_AND_ORGANIZATION ( #117, #124 ) ;
#50 =( GEOMETRIC_REPRESENTATION_CONTEXT ( 3 ) GLOBAL_UNCERTAINTY_ASSIGNED_CONTEXT ( ( #146 ) ) GLOBAL_UNIT_ASSIGNED_CONTEXT ( ( #55, #53, #71 ) ) REPRESENTATION_CONTEXT ( 'NONE', 'WORKASPACE' ) );
#51 = PERSON_AND_ORGANIZATION_ROLE ( 'creator' ) ;
#52 = CARTESIAN_POINT ( 'NONE',  ( -1.250000000000000000, 0.000000000000000000, 2.000000000000000000 ) ) ;
#53 =( NAMED_UNIT ( * ) PLANE_ANGLE_UNIT ( ) SI_UNIT ( $, .RADIAN. ) );
#54 = CC_DESIGN_SECURITY_CLASSIFICATION ( #153, ( #61 ) ) ;
#55 =( LENGTH_UNIT ( ) NAMED_UNIT ( * ) SI_UNIT ( .MILLI., .METRE. ) );
#56 = CARTESIAN_POINT ( 'NONE',  ( 1.250000000000000000, 1.530808498934191571E-16, 317.0000000000000000 ) ) ;
#57 = CYLINDRICAL_SURFACE ( 'NONE', #160, 1.250000000000000000 ) ;
#58 = DIRECTION ( 'NONE',  ( 0.000000000000000000, 0.000000000000000000, 1.000000000000000000 ) ) ;
#59 = CARTESIAN_POINT ( 'NONE',  ( 1.250000000000000000, 1.530808498934191571E-16, 317.0000000000000000 ) ) ;
#60 = DIRECTION ( 'NONE',  ( 0.000000000000000000, 0.000000000000000000, 1.000000000000000000 ) ) ;
#61 = PRODUCT_DEFINITION_FORMATION_WITH_SPECIFIED_SOURCE ( 'LIBOVOLNÝ', '', #236, .NOT_KNOWN. ) ;
#62 = CYLINDRICAL_SURFACE ( 'NONE', #166, 2.500000000000000000 ) ;
#63 = ORIENTED_EDGE ( 'NONE', *, *, #212, .T. ) ;
#64 = DIRECTION ( 'NONE',  ( 0.000000000000000000, 0.000000000000000000, 1.000000000000000000 ) ) ;
#65 = APPROVAL ( #112, 'NEURÈENÝ' ) ;
#66 = ORIENTED_EDGE ( 'NONE', *, *, #227, .T. ) ;
#67 = SECURITY_CLASSIFICATION_LEVEL ( 'unclassified' ) ;
#68 = ORIENTED_EDGE ( 'NONE', *, *, #110, .T. ) ;
#69 = APPROVAL_PERSON_ORGANIZATION ( #72, #65, #194 ) ;
#70 = APPROVAL_DATE_TIME ( #154, #176 ) ;
#71 =( NAMED_UNIT ( * ) SI_UNIT ( $, .STERADIAN. ) SOLID_ANGLE_UNIT ( ) );
#72 = PERSON_AND_ORGANIZATION ( #117, #124 ) ;
#73 = PERSON_AND_ORGANIZATION_ROLE ( 'creator' ) ;
#74 = CC_DESIGN_PERSON_AND_ORGANIZATION_ASSIGNMENT ( #49, #30, ( #153 ) ) ;
#75 = ADVANCED_FACE ( 'NONE', ( #215, #38 ), #159, .T. ) ;
#76 = CIRCLE ( 'NONE', #135, 2.500000000000000000 ) ;
#77 = VECTOR ( 'NONE', #211, 1000.000000000000000 ) ;
#78 = CARTESIAN_POINT ( 'NONE',  ( 1.250000000000000000, 1.530808498934191571E-16, 2.000000000000000000 ) ) ;
#79 = EDGE_CURVE ( 'NONE', #169, #186, #76, .T. ) ;
#80 = DIRECTION ( 'NONE',  ( -1.000000000000000000, 0.000000000000000000, 0.000000000000000000 ) ) ;
#81 = CARTESIAN_POINT ( 'NONE',  ( 0.000000000000000000, 0.000000000000000000, 2.000000000000000000 ) ) ;
#82 = EDGE_CURVE ( 'NONE', #143, #23, #151, .T. ) ;
#83 = DIRECTION ( 'NONE',  ( 0.000000000000000000, 0.000000000000000000, 1.000000000000000000 ) ) ;
#84 = LOCAL_TIME ( 19, 57, 52.00000000000000000, #223 ) ;
#85 = ORIENTED_EDGE ( 'NONE', *, *, #93, .F. ) ;
#86 = ADVANCED_FACE ( 'NONE', ( #197 ), #254, .F. ) ;
#87 = ORIENTED_EDGE ( 'NONE', *, *, #93, .T. ) ;
#88 = ORIENTED_EDGE ( 'NONE', *, *, #19, .T. ) ;
#89 = AXIS2_PLACEMENT_3D ( 'NONE', #33, #214, #157 ) ;
#90 = DIRECTION ( 'NONE',  ( 1.000000000000000000, 0.000000000000000000, 0.000000000000000000 ) ) ;
#91 = PERSON_AND_ORGANIZATION_ROLE ( 'design_supplier' ) ;
#92 = ORIENTED_EDGE ( 'NONE', *, *, #212, .F. ) ;
#93 = EDGE_CURVE ( 'NONE', #26, #225, #243, .T. ) ;
#94 = DATE_AND_TIME ( #128, #177 ) ;
#95 = ADVANCED_FACE ( 'NONE', ( #122 ), #105, .T. ) ;
#96 = ADVANCED_BREP_SHAPE_REPRESENTATION ( '8e25', ( #244, #238 ), #50 ) ;
#97 = DIRECTION ( 'NONE',  ( 0.000000000000000000, 0.000000000000000000, 1.000000000000000000 ) ) ;
#98 = AXIS2_PLACEMENT_3D ( 'NONE', #235, #198, #20 ) ;
#99 = LINE ( 'NONE', #209, #120 ) ;
#100 = DIRECTION ( 'NONE',  ( 1.000000000000000000, 0.000000000000000000, 0.000000000000000000 ) ) ;
#101 = AXIS2_PLACEMENT_3D ( 'NONE', #4, #64, #90 ) ;
#102 = CARTESIAN_POINT ( 'NONE',  ( 0.000000000000000000, 0.000000000000000000, 317.0000000000000000 ) ) ;
#103 = CC_DESIGN_DATE_AND_TIME_ASSIGNMENT ( #224, #190, ( #162 ) ) ;
#104 = DIRECTION ( 'NONE',  ( -1.000000000000000000, 0.000000000000000000, 0.000000000000000000 ) ) ;
#105 = CYLINDRICAL_SURFACE ( 'NONE', #32, 1.250000000000000000 ) ;
#106 = AXIS2_PLACEMENT_3D ( 'NONE', #218, #140, #182 ) ;
#107 = ORIENTED_EDGE ( 'NONE', *, *, #113, .T. ) ;
#108 = VERTEX_POINT ( 'NONE', #78 ) ;
#109 = EDGE_LOOP ( 'NONE', ( #188, #63, #201, #6 ) ) ;
#110 = EDGE_CURVE ( 'NONE', #186, #169, #174, .T. ) ;
#111 = DIRECTION ( 'NONE',  ( -0.000000000000000000, -0.000000000000000000, -1.000000000000000000 ) ) ;
#112 = APPROVAL_STATUS ( 'not_yet_approved' ) ;
#113 = EDGE_CURVE ( 'NONE', #225, #26, #248, .T. ) ;
#114 = COORDINATED_UNIVERSAL_TIME_OFFSET ( 1, 0, .AHEAD. ) ;
#115 = AXIS2_PLACEMENT_3D ( 'NONE', #16, #60, #164 ) ;
#116 = DIRECTION ( 'NONE',  ( 1.000000000000000000, 0.000000000000000000, 0.000000000000000000 ) ) ;
#117 = PERSON ( 'NEURÈENÝ', 'NEURÈENÝ', 'NEURÈENÝ', ('NEURÈENÝ'), ('NEURÈENÝ'), ('NEURÈENÝ') ) ;
#118 = DIRECTION ( 'NONE',  ( -1.000000000000000000, 0.000000000000000000, 0.000000000000000000 ) ) ;
#119 = CIRCLE ( 'NONE', #101, 1.250000000000000000 ) ;
#120 = VECTOR ( 'NONE', #111, 1000.000000000000000 ) ;
#121 = CARTESIAN_POINT ( 'NONE',  ( 0.000000000000000000, 0.000000000000000000, 2.000000000000000000 ) ) ;
#122 = FACE_OUTER_BOUND ( 'NONE', #187, .T. ) ;
#123 = ORIENTED_EDGE ( 'NONE', *, *, #19, .F. ) ;
#124 = ORGANIZATION ( 'NEURÈENÝ', 'NEURÈENÝ', '' ) ;
#125 = ORIENTED_EDGE ( 'NONE', *, *, #79, .T. ) ;
#126 = ORIENTED_EDGE ( 'NONE', *, *, #156, .T. ) ;
#127 = PERSON_AND_ORGANIZATION ( #117, #124 ) ;
#128 = CALENDAR_DATE ( 2022, 7, 7 ) ;
#129 = APPROVAL_ROLE ( '' ) ;
#130 = FACE_OUTER_BOUND ( 'NONE', #168, .T. ) ;
#131 = CC_DESIGN_APPROVAL ( #65, ( #162 ) ) ;
#132 = APPLICATION_PROTOCOL_DEFINITION ( 'international standard', 'config_control_design', 1994, #175 ) ;
#133 = PLANE ( 'NONE',  #89 ) ;
#134 = EDGE_CURVE ( 'NONE', #23, #143, #208, .T. ) ;
#135 = AXIS2_PLACEMENT_3D ( 'NONE', #165, #181, #138 ) ;
#136 = LINE ( 'NONE', #158, #77 ) ;
#137 = DIRECTION ( 'NONE',  ( -0.000000000000000000, -0.000000000000000000, -1.000000000000000000 ) ) ;
#138 = DIRECTION ( 'NONE',  ( 1.000000000000000000, 0.000000000000000000, 0.000000000000000000 ) ) ;
#139 = CC_DESIGN_PERSON_AND_ORGANIZATION_ASSIGNMENT ( #249, #73, ( #162 ) ) ;
#140 = DIRECTION ( 'NONE',  ( 0.000000000000000000, 0.000000000000000000, 1.000000000000000000 ) ) ;
#141 = CARTESIAN_POINT ( 'NONE',  ( 2.500000000000000000, 3.061616997868383141E-16, 2.000000000000000000 ) ) ;
#142 = CARTESIAN_POINT ( 'NONE',  ( 0.000000000000000000, 0.000000000000000000, 2.000000000000000000 ) ) ;
#143 = VERTEX_POINT ( 'NONE', #233 ) ;
#144 = CLOSED_SHELL ( 'NONE', ( #95, #185, #43, #75, #86, #31, #217 ) ) ;
#145 = CARTESIAN_POINT ( 'NONE',  ( -2.500000000000000000, 0.000000000000000000, 0.000000000000000000 ) ) ;
#146 = UNCERTAINTY_MEASURE_WITH_UNIT (LENGTH_MEASURE( 1.000000000000000082E-05 ), #55, 'distance_accuracy_value', 'NONE');
#147 = CIRCLE ( 'NONE', #180, 1.250000000000000000 ) ;
#148 = APPROVAL_STATUS ( 'not_yet_approved' ) ;
#149 = CC_DESIGN_PERSON_AND_ORGANIZATION_ASSIGNMENT ( #127, #51, ( #61 ) ) ;
#150 = EDGE_LOOP ( 'NONE', ( #123, #172 ) ) ;
#151 = CIRCLE ( 'NONE', #184, 2.500000000000000000 ) ;
#152 = COORDINATED_UNIVERSAL_TIME_OFFSET ( 1, 0, .AHEAD. ) ;
#153 = SECURITY_CLASSIFICATION ( '', '', #67 ) ;
#154 = DATE_AND_TIME ( #206, #170 ) ;
#155 = AXIS2_PLACEMENT_3D ( 'NONE', #121, #179, #118 ) ;
#156 = EDGE_CURVE ( 'NONE', #225, #108, #167, .T. ) ;
#157 = DIRECTION ( 'NONE',  ( 1.000000000000000000, 0.000000000000000000, -0.000000000000000000 ) ) ;
#158 = CARTESIAN_POINT ( 'NONE',  ( 2.500000000000000000, 3.061616997868383141E-16, 2.000000000000000000 ) ) ;
#159 = PLANE ( 'NONE',  #9 ) ;
#160 = AXIS2_PLACEMENT_3D ( 'NONE', #102, #183, #231 ) ;
#161 = APPLICATION_CONTEXT ( 'configuration controlled 3d designs of mechanical parts and assemblies' ) ;
#162 = PRODUCT_DEFINITION ( 'NEZNÁMÝ', '', #61, #192 ) ;
#163 = CARTESIAN_POINT ( 'NONE',  ( -1.250000000000000000, 0.000000000000000000, 317.0000000000000000 ) ) ;
#164 = DIRECTION ( 'NONE',  ( 1.000000000000000000, 0.000000000000000000, 0.000000000000000000 ) ) ;
#165 = CARTESIAN_POINT ( 'NONE',  ( 0.000000000000000000, 0.000000000000000000, 2.000000000000000000 ) ) ;
#166 = AXIS2_PLACEMENT_3D ( 'NONE', #142, #137, #104 ) ;
#167 = LINE ( 'NONE', #59, #17 ) ;
#168 = EDGE_LOOP ( 'NONE', ( #87, #107 ) ) ;
#169 = VERTEX_POINT ( 'NONE', #141 ) ;
#170 = LOCAL_TIME ( 19, 57, 52.00000000000000000, #173 ) ;
#171 = APPROVAL_DATE_TIME ( #94, #251 ) ;
#172 = ORIENTED_EDGE ( 'NONE', *, *, #227, .F. ) ;
#173 = COORDINATED_UNIVERSAL_TIME_OFFSET ( 1, 0, .AHEAD. ) ;
#174 = CIRCLE ( 'NONE', #40, 2.500000000000000000 ) ;
#175 = APPLICATION_CONTEXT ( 'configuration controlled 3d designs of mechanical parts and assemblies' ) ;
#176 = APPROVAL ( #148, 'NEURÈENÝ' ) ;
#177 = LOCAL_TIME ( 19, 57, 52.00000000000000000, #152 ) ;
#178 = APPROVAL_DATE_TIME ( #13, #65 ) ;
#179 = DIRECTION ( 'NONE',  ( -0.000000000000000000, -0.000000000000000000, -1.000000000000000000 ) ) ;
#180 = AXIS2_PLACEMENT_3D ( 'NONE', #37, #36, #207 ) ;
#181 = DIRECTION ( 'NONE',  ( 0.000000000000000000, 0.000000000000000000, 1.000000000000000000 ) ) ;
#182 = DIRECTION ( 'NONE',  ( 1.000000000000000000, 0.000000000000000000, -0.000000000000000000 ) ) ;
#183 = DIRECTION ( 'NONE',  ( -0.000000000000000000, -0.000000000000000000, -1.000000000000000000 ) ) ;
#184 = AXIS2_PLACEMENT_3D ( 'NONE', #216, #58, #116 ) ;
#185 = ADVANCED_FACE ( 'NONE', ( #199 ), #62, .T. ) ;
#186 = VERTEX_POINT ( 'NONE', #230 ) ;
#187 = EDGE_LOOP ( 'NONE', ( #45, #126, #66, #48 ) ) ;
#188 = ORIENTED_EDGE ( 'NONE', *, *, #79, .F. ) ;
#189 = APPROVAL_STATUS ( 'not_yet_approved' ) ;
#190 = DATE_TIME_ROLE ( 'creation_date' ) ;
#191 = LINE ( 'NONE', #10, #221 ) ;
#192 = DESIGN_CONTEXT ( 'detailed design', #175, 'design' ) ;
#193 = DIRECTION ( 'NONE',  ( -0.000000000000000000, -0.000000000000000000, -1.000000000000000000 ) ) ;
#194 = APPROVAL_ROLE ( '' ) ;
#195 = APPROVAL_PERSON_ORGANIZATION ( #205, #251, #240 ) ;
#196 = PERSON_AND_ORGANIZATION_ROLE ( 'design_owner' ) ;
#197 = FACE_OUTER_BOUND ( 'NONE', #28, .T. ) ;
#198 = DIRECTION ( 'NONE',  ( 0.000000000000000000, 0.000000000000000000, 1.000000000000000000 ) ) ;
#199 = FACE_OUTER_BOUND ( 'NONE', #109, .T. ) ;
#200 = DIRECTION ( 'NONE',  ( 1.000000000000000000, 0.000000000000000000, 0.000000000000000000 ) ) ;
#201 = ORIENTED_EDGE ( 'NONE', *, *, #82, .T. ) ;
#202 = ORIENTED_EDGE ( 'NONE', *, *, #134, .T. ) ;
#203 = VERTEX_POINT ( 'NONE', #52 ) ;
#204 = CC_DESIGN_APPROVAL ( #251, ( #61 ) ) ;
#205 = PERSON_AND_ORGANIZATION ( #117, #124 ) ;
#206 = CALENDAR_DATE ( 2022, 7, 7 ) ;
#207 = DIRECTION ( 'NONE',  ( 1.000000000000000000, 0.000000000000000000, 0.000000000000000000 ) ) ;
#208 = CIRCLE ( 'NONE', #115, 2.500000000000000000 ) ;
#209 = CARTESIAN_POINT ( 'NONE',  ( -1.250000000000000000, 0.000000000000000000, 317.0000000000000000 ) ) ;
#210 = PERSON_AND_ORGANIZATION ( #117, #124 ) ;
#211 = DIRECTION ( 'NONE',  ( -0.000000000000000000, -0.000000000000000000, -1.000000000000000000 ) ) ;
#212 = EDGE_CURVE ( 'NONE', #169, #143, #136, .T. ) ;
#213 = CC_DESIGN_APPROVAL ( #176, ( #153 ) ) ;
#214 = DIRECTION ( 'NONE',  ( 0.000000000000000000, 0.000000000000000000, 1.000000000000000000 ) ) ;
#215 = FACE_BOUND ( 'NONE', #150, .T. ) ;
#216 = CARTESIAN_POINT ( 'NONE',  ( 0.000000000000000000, 0.000000000000000000, 0.000000000000000000 ) ) ;
#217 = ADVANCED_FACE ( 'NONE', ( #130 ), #133, .T. ) ;
#218 = CARTESIAN_POINT ( 'NONE',  ( 0.000000000000000000, 0.000000000000000000, 0.000000000000000000 ) ) ;
#219 = DIRECTION ( 'NONE',  ( 0.000000000000000000, 0.000000000000000000, 1.000000000000000000 ) ) ;
#220 = ORIENTED_EDGE ( 'NONE', *, *, #82, .F. ) ;
#221 = VECTOR ( 'NONE', #193, 1000.000000000000000 ) ;
#222 = EDGE_LOOP ( 'NONE', ( #92, #242, #255, #202 ) ) ;
#223 = COORDINATED_UNIVERSAL_TIME_OFFSET ( 1, 0, .AHEAD. ) ;
#224 = DATE_AND_TIME ( #8, #245 ) ;
#225 = VERTEX_POINT ( 'NONE', #56 ) ;
#226 = PERSON_AND_ORGANIZATION ( #117, #124 ) ;
#227 = EDGE_CURVE ( 'NONE', #108, #203, #147, .T. ) ;
#228 = SHAPE_DEFINITION_REPRESENTATION ( #21, #96 ) ;
#229 = MECHANICAL_CONTEXT ( 'NONE', #161, 'mechanical' ) ;
#230 = CARTESIAN_POINT ( 'NONE',  ( -2.500000000000000000, 0.000000000000000000, 2.000000000000000000 ) ) ;
#231 = DIRECTION ( 'NONE',  ( -1.000000000000000000, 0.000000000000000000, 0.000000000000000000 ) ) ;
#232 = DIRECTION ( 'NONE',  ( 0.000000000000000000, 0.000000000000000000, 1.000000000000000000 ) ) ;
#233 = CARTESIAN_POINT ( 'NONE',  ( 2.500000000000000000, 3.061616997868383141E-16, 0.000000000000000000 ) ) ;
#234 = EDGE_CURVE ( 'NONE', #26, #203, #99, .T. ) ;
#235 = CARTESIAN_POINT ( 'NONE',  ( 0.000000000000000000, 0.000000000000000000, 317.0000000000000000 ) ) ;
#236 = PRODUCT ( '8e25', '8e25', '', ( #229 ) ) ;
#237 = DIRECTION ( 'NONE',  ( -0.000000000000000000, -0.000000000000000000, -1.000000000000000000 ) ) ;
#238 = AXIS2_PLACEMENT_3D ( 'NONE', #11, #97, #247 ) ;
#239 = ORIENTED_EDGE ( 'NONE', *, *, #234, .T. ) ;
#240 = APPROVAL_ROLE ( '' ) ;
#241 = EDGE_CURVE ( 'NONE', #186, #23, #191, .T. ) ;
#242 = ORIENTED_EDGE ( 'NONE', *, *, #110, .F. ) ;
#243 = CIRCLE ( 'NONE', #3, 1.250000000000000000 ) ;
#244 = MANIFOLD_SOLID_BREP ( 'Pøidat vysunutím3', #144 ) ;
#245 = LOCAL_TIME ( 19, 57, 52.00000000000000000, #246 ) ;
#246 = COORDINATED_UNIVERSAL_TIME_OFFSET ( 1, 0, .AHEAD. ) ;
#247 = DIRECTION ( 'NONE',  ( 1.000000000000000000, 0.000000000000000000, 0.000000000000000000 ) ) ;
#248 = CIRCLE ( 'NONE', #98, 1.250000000000000000 ) ;
#249 = PERSON_AND_ORGANIZATION ( #117, #124 ) ;
#250 = DIRECTION ( 'NONE',  ( -0.000000000000000000, -0.000000000000000000, -1.000000000000000000 ) ) ;
#251 = APPROVAL ( #189, 'NEURÈENÝ' ) ;
#252 = CARTESIAN_POINT ( 'NONE',  ( 0.000000000000000000, 0.000000000000000000, 317.0000000000000000 ) ) ;
#253 = FACE_OUTER_BOUND ( 'NONE', #222, .T. ) ;
#254 = PLANE ( 'NONE',  #106 ) ;
#255 = ORIENTED_EDGE ( 'NONE', *, *, #241, .T. ) ;
ENDSEC;
END-ISO-10303-21;
