ISO-10303-21;
HEADER;
FILE_DESCRIPTION (( 'STEP AP203' ),
    '1' );
FILE_NAME ('406d.STEP',
    '2022-07-07T17:35:25',
    ( '' ),
    ( '' ),
    'SwSTEP 2.0',
    'SolidWorks 2019',
    '' );
FILE_SCHEMA (( 'CONFIG_CONTROL_DESIGN' ));
ENDSEC;

DATA;
#1 = CARTESIAN_POINT ( 'NONE',  ( 3.500000000000000000, 4.286263797015736595E-16, 505.0000000000000000 ) ) ;
#2 = ORIENTED_EDGE ( 'NONE', *, *, #191, .F. ) ;
#3 = LINE ( 'NONE', #83, #77 ) ;
#4 = ORIENTED_EDGE ( 'NONE', *, *, #96, .F. ) ;
#5 = CARTESIAN_POINT ( 'NONE',  ( 0.000000000000000000, 0.000000000000000000, 505.0000000000000000 ) ) ;
#6 = EDGE_CURVE ( 'NONE', #238, #145, #201, .T. ) ;
#7 = AXIS2_PLACEMENT_3D ( 'NONE', #235, #87, #125 ) ;
#8 = PRODUCT_DEFINITION_FORMATION_WITH_SPECIFIED_SOURCE ( 'LIBOVOLNÝ', '', #20, .NOT_KNOWN. ) ;
#9 = AXIS2_PLACEMENT_3D ( 'NONE', #24, #161, #165 ) ;
#10 = CALENDAR_DATE ( 2022, 7, 7 ) ;
#11 = DESIGN_CONTEXT ( 'detailed design', #247, 'design' ) ;
#12 = DIRECTION ( 'NONE',  ( 1.000000000000000000, 0.000000000000000000, 0.000000000000000000 ) ) ;
#13 = CARTESIAN_POINT ( 'NONE',  ( 3.500000000000000000, 4.286263797015736595E-16, 5.000000000000000000 ) ) ;
#14 = CC_DESIGN_APPROVAL ( #183, ( #8 ) ) ;
#15 = CARTESIAN_POINT ( 'NONE',  ( 0.000000000000000000, 0.000000000000000000, 0.000000000000000000 ) ) ;
#16 = CYLINDRICAL_SURFACE ( 'NONE', #88, 3.500000000000000000 ) ;
#17 = ORIENTED_EDGE ( 'NONE', *, *, #149, .F. ) ;
#18 = EDGE_CURVE ( 'NONE', #109, #76, #84, .T. ) ;
#19 = LINE ( 'NONE', #143, #171 ) ;
#20 = PRODUCT ( '406d', '406d', '', ( #152 ) ) ;
#21 = CARTESIAN_POINT ( 'NONE',  ( 0.000000000000000000, 0.000000000000000000, 505.0000000000000000 ) ) ;
#22 = APPROVAL_PERSON_ORGANIZATION ( #116, #32, #117 ) ;
#23 = DIRECTION ( 'NONE',  ( 1.000000000000000000, 0.000000000000000000, -0.000000000000000000 ) ) ;
#24 = CARTESIAN_POINT ( 'NONE',  ( 0.000000000000000000, 0.000000000000000000, 505.0000000000000000 ) ) ;
#25 = CC_DESIGN_DATE_AND_TIME_ASSIGNMENT ( #30, #114, ( #51 ) ) ;
#26 = LINE ( 'NONE', #44, #184 ) ;
#27 = ORIENTED_EDGE ( 'NONE', *, *, #52, .F. ) ;
#28 = CC_DESIGN_PERSON_AND_ORGANIZATION_ASSIGNMENT ( #98, #223, ( #20 ) ) ;
#29 = AXIS2_PLACEMENT_3D ( 'NONE', #246, #119, #159 ) ;
#30 = DATE_AND_TIME ( #153, #195 ) ;
#31 = LOCAL_TIME ( 19, 35, 25.00000000000000000, #173 ) ;
#32 = APPROVAL ( #134, 'NEURÈENÝ' ) ;
#33 = DATE_AND_TIME ( #245, #132 ) ;
#34 = PERSON_AND_ORGANIZATION ( #90, #37 ) ;
#35 = CALENDAR_DATE ( 2022, 7, 7 ) ;
#36 = DIRECTION ( 'NONE',  ( 1.000000000000000000, 0.000000000000000000, -0.000000000000000000 ) ) ;
#37 = ORGANIZATION ( 'NEURÈENÝ', 'NEURÈENÝ', '' ) ;
#38 =( NAMED_UNIT ( * ) SI_UNIT ( $, .STERADIAN. ) SOLID_ANGLE_UNIT ( ) );
#39 = DIRECTION ( 'NONE',  ( 1.000000000000000000, 0.000000000000000000, 0.000000000000000000 ) ) ;
#40 = FACE_OUTER_BOUND ( 'NONE', #220, .T. ) ;
#41 = ORIENTED_EDGE ( 'NONE', *, *, #149, .T. ) ;
#42 = AXIS2_PLACEMENT_3D ( 'NONE', #148, #45, #128 ) ;
#43 = DIRECTION ( 'NONE',  ( -0.000000000000000000, -0.000000000000000000, -1.000000000000000000 ) ) ;
#44 = CARTESIAN_POINT ( 'NONE',  ( -3.500000000000000000, 0.000000000000000000, 505.0000000000000000 ) ) ;
#45 = DIRECTION ( 'NONE',  ( 0.000000000000000000, 0.000000000000000000, 1.000000000000000000 ) ) ;
#46 = EDGE_CURVE ( 'NONE', #180, #65, #207, .T. ) ;
#47 = ORIENTED_EDGE ( 'NONE', *, *, #199, .T. ) ;
#48 = CC_DESIGN_PERSON_AND_ORGANIZATION_ASSIGNMENT ( #55, #54, ( #51 ) ) ;
#49 = PRODUCT_DEFINITION_SHAPE ( 'NONE', 'NONE',  #51 ) ;
#50 = APPLICATION_PROTOCOL_DEFINITION ( 'international standard', 'config_control_design', 1994, #247 ) ;
#51 = PRODUCT_DEFINITION ( 'NEZNÁMÝ', '', #8, #11 ) ;
#52 = EDGE_CURVE ( 'NONE', #145, #238, #130, .T. ) ;
#53 = SHAPE_DEFINITION_REPRESENTATION ( #49, #107 ) ;
#54 = PERSON_AND_ORGANIZATION_ROLE ( 'creator' ) ;
#55 = PERSON_AND_ORGANIZATION ( #90, #37 ) ;
#56 = DIRECTION ( 'NONE',  ( 0.000000000000000000, 0.000000000000000000, 1.000000000000000000 ) ) ;
#57 = ADVANCED_FACE ( 'NONE', ( #202 ), #196, .T. ) ;
#58 = FACE_OUTER_BOUND ( 'NONE', #110, .T. ) ;
#59 = DIRECTION ( 'NONE',  ( 1.000000000000000000, 0.000000000000000000, 0.000000000000000000 ) ) ;
#60 = ORIENTED_EDGE ( 'NONE', *, *, #46, .T. ) ;
#61 = ADVANCED_FACE ( 'NONE', ( #81, #236 ), #255, .T. ) ;
#62 = DIRECTION ( 'NONE',  ( 0.000000000000000000, 0.000000000000000000, 1.000000000000000000 ) ) ;
#63 = AXIS2_PLACEMENT_3D ( 'NONE', #80, #193, #59 ) ;
#64 = ORIENTED_EDGE ( 'NONE', *, *, #204, .F. ) ;
#65 = VERTEX_POINT ( 'NONE', #105 ) ;
#66 = ORIENTED_EDGE ( 'NONE', *, *, #69, .F. ) ;
#67 = ADVANCED_FACE ( 'NONE', ( #178 ), #146, .T. ) ;
#68 = ORIENTED_EDGE ( 'NONE', *, *, #96, .T. ) ;
#69 = EDGE_CURVE ( 'NONE', #145, #155, #3, .T. ) ;
#70 = APPROVAL_DATE_TIME ( #94, #239 ) ;
#71 = SECURITY_CLASSIFICATION_LEVEL ( 'unclassified' ) ;
#72 = CIRCLE ( 'NONE', #216, 6.000000000000000888 ) ;
#73 = DIRECTION ( 'NONE',  ( 0.000000000000000000, 0.000000000000000000, 1.000000000000000000 ) ) ;
#74 = CARTESIAN_POINT ( 'NONE',  ( -3.500000000000000000, 0.000000000000000000, 5.000000000000000000 ) ) ;
#75 = APPROVAL_STATUS ( 'not_yet_approved' ) ;
#76 = VERTEX_POINT ( 'NONE', #162 ) ;
#77 = VECTOR ( 'NONE', #198, 1000.000000000000000 ) ;
#78 = DIRECTION ( 'NONE',  ( -0.000000000000000000, -0.000000000000000000, -1.000000000000000000 ) ) ;
#79 = CIRCLE ( 'NONE', #29, 3.500000000000000000 ) ;
#80 = CARTESIAN_POINT ( 'NONE',  ( 0.000000000000000000, 0.000000000000000000, 0.000000000000000000 ) ) ;
#81 = FACE_BOUND ( 'NONE', #147, .T. ) ;
#82 = ORIENTED_EDGE ( 'NONE', *, *, #122, .T. ) ;
#83 = CARTESIAN_POINT ( 'NONE',  ( 3.500000000000000000, 4.286263797015736595E-16, 505.0000000000000000 ) ) ;
#84 = CIRCLE ( 'NONE', #7, 6.000000000000000888 ) ;
#85 = APPROVAL_PERSON_ORGANIZATION ( #211, #183, #156 ) ;
#86 = CC_DESIGN_PERSON_AND_ORGANIZATION_ASSIGNMENT ( #140, #154, ( #8 ) ) ;
#87 = DIRECTION ( 'NONE',  ( 0.000000000000000000, 0.000000000000000000, 1.000000000000000000 ) ) ;
#88 = AXIS2_PLACEMENT_3D ( 'NONE', #21, #100, #176 ) ;
#89 = AXIS2_PLACEMENT_3D ( 'NONE', #229, #99, #172 ) ;
#90 = PERSON ( 'NEURÈENÝ', 'NEURÈENÝ', 'NEURÈENÝ', ('NEURÈENÝ'), ('NEURÈENÝ'), ('NEURÈENÝ') ) ;
#91 = EDGE_LOOP ( 'NONE', ( #66, #232, #68, #234 ) ) ;
#92 = APPROVAL_ROLE ( '' ) ;
#93 =( GEOMETRIC_REPRESENTATION_CONTEXT ( 3 ) GLOBAL_UNCERTAINTY_ASSIGNED_CONTEXT ( ( #115 ) ) GLOBAL_UNIT_ASSIGNED_CONTEXT ( ( #158, #254, #38 ) ) REPRESENTATION_CONTEXT ( 'NONE', 'WORKASPACE' ) );
#94 = DATE_AND_TIME ( #10, #177 ) ;
#95 = DATE_AND_TIME ( #35, #208 ) ;
#96 = EDGE_CURVE ( 'NONE', #238, #97, #26, .T. ) ;
#97 = VERTEX_POINT ( 'NONE', #74 ) ;
#98 = PERSON_AND_ORGANIZATION ( #90, #37 ) ;
#99 = DIRECTION ( 'NONE',  ( 0.000000000000000000, 0.000000000000000000, 1.000000000000000000 ) ) ;
#100 = DIRECTION ( 'NONE',  ( -0.000000000000000000, -0.000000000000000000, -1.000000000000000000 ) ) ;
#101 = ORIENTED_EDGE ( 'NONE', *, *, #199, .F. ) ;
#102 = CARTESIAN_POINT ( 'NONE',  ( 0.000000000000000000, 0.000000000000000000, 5.000000000000000000 ) ) ;
#103 = DIRECTION ( 'NONE',  ( -0.000000000000000000, -0.000000000000000000, -1.000000000000000000 ) ) ;
#104 = CARTESIAN_POINT ( 'NONE',  ( 0.000000000000000000, 0.000000000000000000, 505.0000000000000000 ) ) ;
#105 = CARTESIAN_POINT ( 'NONE',  ( 6.000000000000000888, 7.347880794884120722E-16, 5.000000000000000000 ) ) ;
#106 = DIRECTION ( 'NONE',  ( -1.000000000000000000, 0.000000000000000000, 0.000000000000000000 ) ) ;
#107 = ADVANCED_BREP_SHAPE_REPRESENTATION ( '406d', ( #151, #131 ), #93 ) ;
#108 = ORIENTED_EDGE ( 'NONE', *, *, #6, .T. ) ;
#109 = VERTEX_POINT ( 'NONE', #123 ) ;
#110 = EDGE_LOOP ( 'NONE', ( #17, #252 ) ) ;
#111 = AXIS2_PLACEMENT_3D ( 'NONE', #160, #62, #23 ) ;
#112 = CLOSED_SHELL ( 'NONE', ( #251, #230, #67, #61, #181, #57, #210 ) ) ;
#113 = ORIENTED_EDGE ( 'NONE', *, *, #122, .F. ) ;
#114 = DATE_TIME_ROLE ( 'creation_date' ) ;
#115 = UNCERTAINTY_MEASURE_WITH_UNIT (LENGTH_MEASURE( 1.000000000000000082E-05 ), #158, 'distance_accuracy_value', 'NONE');
#116 = PERSON_AND_ORGANIZATION ( #90, #37 ) ;
#117 = APPROVAL_ROLE ( '' ) ;
#118 = COORDINATED_UNIVERSAL_TIME_OFFSET ( 1, 0, .AHEAD. ) ;
#119 = DIRECTION ( 'NONE',  ( 0.000000000000000000, 0.000000000000000000, 1.000000000000000000 ) ) ;
#120 = SECURITY_CLASSIFICATION ( '', '', #71 ) ;
#121 = DIRECTION ( 'NONE',  ( -0.000000000000000000, -0.000000000000000000, -1.000000000000000000 ) ) ;
#122 = EDGE_CURVE ( 'NONE', #65, #180, #72, .T. ) ;
#123 = CARTESIAN_POINT ( 'NONE',  ( 6.000000000000000888, 7.347880794884120722E-16, 0.000000000000000000 ) ) ;
#124 = AXIS2_PLACEMENT_3D ( 'NONE', #5, #197, #182 ) ;
#125 = DIRECTION ( 'NONE',  ( 1.000000000000000000, 0.000000000000000000, 0.000000000000000000 ) ) ;
#126 = CC_DESIGN_APPROVAL ( #239, ( #120 ) ) ;
#127 = ORIENTED_EDGE ( 'NONE', *, *, #136, .F. ) ;
#128 = DIRECTION ( 'NONE',  ( 1.000000000000000000, 0.000000000000000000, 0.000000000000000000 ) ) ;
#129 = DIRECTION ( 'NONE',  ( 1.000000000000000000, 0.000000000000000000, 0.000000000000000000 ) ) ;
#130 = CIRCLE ( 'NONE', #135, 3.500000000000000000 ) ;
#131 = AXIS2_PLACEMENT_3D ( 'NONE', #15, #73, #12 ) ;
#132 = LOCAL_TIME ( 19, 35, 25.00000000000000000, #170 ) ;
#133 = ORIENTED_EDGE ( 'NONE', *, *, #46, .F. ) ;
#134 = APPROVAL_STATUS ( 'not_yet_approved' ) ;
#135 = AXIS2_PLACEMENT_3D ( 'NONE', #218, #179, #129 ) ;
#136 = EDGE_CURVE ( 'NONE', #65, #109, #141, .T. ) ;
#137 = DATE_AND_TIME ( #168, #31 ) ;
#138 = CC_DESIGN_APPROVAL ( #32, ( #51 ) ) ;
#139 = PERSON_AND_ORGANIZATION_ROLE ( 'design_supplier' ) ;
#140 = PERSON_AND_ORGANIZATION ( #90, #37 ) ;
#141 = LINE ( 'NONE', #231, #242 ) ;
#142 = CARTESIAN_POINT ( 'NONE',  ( -3.500000000000000000, 0.000000000000000000, 505.0000000000000000 ) ) ;
#143 = CARTESIAN_POINT ( 'NONE',  ( -6.000000000000000888, 0.000000000000000000, 5.000000000000000000 ) ) ;
#144 = DIRECTION ( 'NONE',  ( 0.000000000000000000, 0.000000000000000000, 1.000000000000000000 ) ) ;
#145 = VERTEX_POINT ( 'NONE', #1 ) ;
#146 = CYLINDRICAL_SURFACE ( 'NONE', #188, 6.000000000000000888 ) ;
#147 = EDGE_LOOP ( 'NONE', ( #64, #101 ) ) ;
#148 = CARTESIAN_POINT ( 'NONE',  ( 0.000000000000000000, 0.000000000000000000, 5.000000000000000000 ) ) ;
#149 = EDGE_CURVE ( 'NONE', #76, #109, #206, .T. ) ;
#150 = AXIS2_PLACEMENT_3D ( 'NONE', #104, #194, #36 ) ;
#151 = MANIFOLD_SOLID_BREP ( 'Pøidat vysunutím3', #112 ) ;
#152 = MECHANICAL_CONTEXT ( 'NONE', #221, 'mechanical' ) ;
#153 = CALENDAR_DATE ( 2022, 7, 7 ) ;
#154 = PERSON_AND_ORGANIZATION_ROLE ( 'creator' ) ;
#155 = VERTEX_POINT ( 'NONE', #13 ) ;
#156 = APPROVAL_ROLE ( '' ) ;
#157 = CARTESIAN_POINT ( 'NONE',  ( 0.000000000000000000, 0.000000000000000000, 5.000000000000000000 ) ) ;
#158 =( LENGTH_UNIT ( ) NAMED_UNIT ( * ) SI_UNIT ( .MILLI., .METRE. ) );
#159 = DIRECTION ( 'NONE',  ( 1.000000000000000000, 0.000000000000000000, 0.000000000000000000 ) ) ;
#160 = CARTESIAN_POINT ( 'NONE',  ( 0.000000000000000000, 0.000000000000000000, 5.000000000000000000 ) ) ;
#161 = DIRECTION ( 'NONE',  ( -0.000000000000000000, -0.000000000000000000, -1.000000000000000000 ) ) ;
#162 = CARTESIAN_POINT ( 'NONE',  ( -6.000000000000000888, 0.000000000000000000, 0.000000000000000000 ) ) ;
#163 = EDGE_LOOP ( 'NONE', ( #60, #82 ) ) ;
#164 = ORIENTED_EDGE ( 'NONE', *, *, #18, .T. ) ;
#165 = DIRECTION ( 'NONE',  ( -1.000000000000000000, 0.000000000000000000, 0.000000000000000000 ) ) ;
#166 = CC_DESIGN_PERSON_AND_ORGANIZATION_ASSIGNMENT ( #241, #139, ( #8 ) ) ;
#167 = APPLICATION_PROTOCOL_DEFINITION ( 'international standard', 'config_control_design', 1994, #221 ) ;
#168 = CALENDAR_DATE ( 2022, 7, 7 ) ;
#169 = APPROVAL_DATE_TIME ( #95, #183 ) ;
#170 = COORDINATED_UNIVERSAL_TIME_OFFSET ( 1, 0, .AHEAD. ) ;
#171 = VECTOR ( 'NONE', #213, 1000.000000000000000 ) ;
#172 = DIRECTION ( 'NONE',  ( 1.000000000000000000, 0.000000000000000000, -0.000000000000000000 ) ) ;
#173 = COORDINATED_UNIVERSAL_TIME_OFFSET ( 1, 0, .AHEAD. ) ;
#174 = DIRECTION ( 'NONE',  ( 1.000000000000000000, 0.000000000000000000, 0.000000000000000000 ) ) ;
#175 = FACE_OUTER_BOUND ( 'NONE', #187, .T. ) ;
#176 = DIRECTION ( 'NONE',  ( -1.000000000000000000, 0.000000000000000000, 0.000000000000000000 ) ) ;
#177 = LOCAL_TIME ( 19, 35, 25.00000000000000000, #190 ) ;
#178 = FACE_OUTER_BOUND ( 'NONE', #233, .T. ) ;
#179 = DIRECTION ( 'NONE',  ( 0.000000000000000000, 0.000000000000000000, 1.000000000000000000 ) ) ;
#180 = VERTEX_POINT ( 'NONE', #228 ) ;
#181 = ADVANCED_FACE ( 'NONE', ( #58 ), #227, .F. ) ;
#182 = DIRECTION ( 'NONE',  ( 1.000000000000000000, 0.000000000000000000, 0.000000000000000000 ) ) ;
#183 = APPROVAL ( #240, 'NEURÈENÝ' ) ;
#184 = VECTOR ( 'NONE', #121, 1000.000000000000000 ) ;
#185 = EDGE_LOOP ( 'NONE', ( #113, #215, #164, #2 ) ) ;
#186 = CC_DESIGN_PERSON_AND_ORGANIZATION_ASSIGNMENT ( #34, #224, ( #120 ) ) ;
#187 = EDGE_LOOP ( 'NONE', ( #108, #200 ) ) ;
#188 = AXIS2_PLACEMENT_3D ( 'NONE', #217, #43, #106 ) ;
#189 = APPROVAL_PERSON_ORGANIZATION ( #225, #239, #92 ) ;
#190 = COORDINATED_UNIVERSAL_TIME_OFFSET ( 1, 0, .AHEAD. ) ;
#191 = EDGE_CURVE ( 'NONE', #180, #76, #19, .T. ) ;
#192 = CARTESIAN_POINT ( 'NONE',  ( 0.000000000000000000, 0.000000000000000000, 5.000000000000000000 ) ) ;
#193 = DIRECTION ( 'NONE',  ( 0.000000000000000000, 0.000000000000000000, 1.000000000000000000 ) ) ;
#194 = DIRECTION ( 'NONE',  ( 0.000000000000000000, 0.000000000000000000, 1.000000000000000000 ) ) ;
#195 = LOCAL_TIME ( 19, 35, 25.00000000000000000, #226 ) ;
#196 = CYLINDRICAL_SURFACE ( 'NONE', #9, 3.500000000000000000 ) ;
#197 = DIRECTION ( 'NONE',  ( 0.000000000000000000, 0.000000000000000000, 1.000000000000000000 ) ) ;
#198 = DIRECTION ( 'NONE',  ( -0.000000000000000000, -0.000000000000000000, -1.000000000000000000 ) ) ;
#199 = EDGE_CURVE ( 'NONE', #155, #97, #79, .T. ) ;
#200 = ORIENTED_EDGE ( 'NONE', *, *, #52, .T. ) ;
#201 = CIRCLE ( 'NONE', #124, 3.500000000000000000 ) ;
#202 = FACE_OUTER_BOUND ( 'NONE', #91, .T. ) ;
#203 = CIRCLE ( 'NONE', #253, 3.500000000000000000 ) ;
#204 = EDGE_CURVE ( 'NONE', #97, #155, #203, .T. ) ;
#205 = AXIS2_PLACEMENT_3D ( 'NONE', #192, #78, #249 ) ;
#206 = CIRCLE ( 'NONE', #63, 6.000000000000000888 ) ;
#207 = CIRCLE ( 'NONE', #42, 6.000000000000000888 ) ;
#208 = LOCAL_TIME ( 19, 35, 25.00000000000000000, #118 ) ;
#209 = APPROVAL_DATE_TIME ( #33, #32 ) ;
#210 = ADVANCED_FACE ( 'NONE', ( #175 ), #212, .T. ) ;
#211 = PERSON_AND_ORGANIZATION ( #90, #37 ) ;
#212 = PLANE ( 'NONE',  #150 ) ;
#213 = DIRECTION ( 'NONE',  ( -0.000000000000000000, -0.000000000000000000, -1.000000000000000000 ) ) ;
#214 = CYLINDRICAL_SURFACE ( 'NONE', #205, 6.000000000000000888 ) ;
#215 = ORIENTED_EDGE ( 'NONE', *, *, #136, .T. ) ;
#216 = AXIS2_PLACEMENT_3D ( 'NONE', #157, #144, #174 ) ;
#217 = CARTESIAN_POINT ( 'NONE',  ( 0.000000000000000000, 0.000000000000000000, 5.000000000000000000 ) ) ;
#218 = CARTESIAN_POINT ( 'NONE',  ( 0.000000000000000000, 0.000000000000000000, 505.0000000000000000 ) ) ;
#219 = ORIENTED_EDGE ( 'NONE', *, *, #191, .T. ) ;
#220 = EDGE_LOOP ( 'NONE', ( #27, #243, #47, #4 ) ) ;
#221 = APPLICATION_CONTEXT ( 'configuration controlled 3d designs of mechanical parts and assemblies' ) ;
#222 = CC_DESIGN_SECURITY_CLASSIFICATION ( #120, ( #8 ) ) ;
#223 = PERSON_AND_ORGANIZATION_ROLE ( 'design_owner' ) ;
#224 = PERSON_AND_ORGANIZATION_ROLE ( 'classification_officer' ) ;
#225 = PERSON_AND_ORGANIZATION ( #90, #37 ) ;
#226 = COORDINATED_UNIVERSAL_TIME_OFFSET ( 1, 0, .AHEAD. ) ;
#227 = PLANE ( 'NONE',  #89 ) ;
#228 = CARTESIAN_POINT ( 'NONE',  ( -6.000000000000000888, 0.000000000000000000, 5.000000000000000000 ) ) ;
#229 = CARTESIAN_POINT ( 'NONE',  ( 0.000000000000000000, 0.000000000000000000, 0.000000000000000000 ) ) ;
#230 = ADVANCED_FACE ( 'NONE', ( #250 ), #214, .T. ) ;
#231 = CARTESIAN_POINT ( 'NONE',  ( 6.000000000000000888, 7.347880794884120722E-16, 5.000000000000000000 ) ) ;
#232 = ORIENTED_EDGE ( 'NONE', *, *, #6, .F. ) ;
#233 = EDGE_LOOP ( 'NONE', ( #127, #133, #219, #41 ) ) ;
#234 = ORIENTED_EDGE ( 'NONE', *, *, #204, .T. ) ;
#235 = CARTESIAN_POINT ( 'NONE',  ( 0.000000000000000000, 0.000000000000000000, 0.000000000000000000 ) ) ;
#236 = FACE_OUTER_BOUND ( 'NONE', #163, .T. ) ;
#237 = CC_DESIGN_DATE_AND_TIME_ASSIGNMENT ( #137, #248, ( #120 ) ) ;
#238 = VERTEX_POINT ( 'NONE', #142 ) ;
#239 = APPROVAL ( #75, 'NEURÈENÝ' ) ;
#240 = APPROVAL_STATUS ( 'not_yet_approved' ) ;
#241 = PERSON_AND_ORGANIZATION ( #90, #37 ) ;
#242 = VECTOR ( 'NONE', #103, 1000.000000000000000 ) ;
#243 = ORIENTED_EDGE ( 'NONE', *, *, #69, .T. ) ;
#244 = PRODUCT_RELATED_PRODUCT_CATEGORY ( 'detail', '', ( #20 ) ) ;
#245 = CALENDAR_DATE ( 2022, 7, 7 ) ;
#246 = CARTESIAN_POINT ( 'NONE',  ( 0.000000000000000000, 0.000000000000000000, 5.000000000000000000 ) ) ;
#247 = APPLICATION_CONTEXT ( 'configuration controlled 3d designs of mechanical parts and assemblies' ) ;
#248 = DATE_TIME_ROLE ( 'classification_date' ) ;
#249 = DIRECTION ( 'NONE',  ( -1.000000000000000000, 0.000000000000000000, 0.000000000000000000 ) ) ;
#250 = FACE_OUTER_BOUND ( 'NONE', #185, .T. ) ;
#251 = ADVANCED_FACE ( 'NONE', ( #40 ), #16, .T. ) ;
#252 = ORIENTED_EDGE ( 'NONE', *, *, #18, .F. ) ;
#253 = AXIS2_PLACEMENT_3D ( 'NONE', #102, #56, #39 ) ;
#254 =( NAMED_UNIT ( * ) PLANE_ANGLE_UNIT ( ) SI_UNIT ( $, .RADIAN. ) );
#255 = PLANE ( 'NONE',  #111 ) ;
ENDSEC;
END-ISO-10303-21;
