ISO-10303-21;
HEADER;
FILE_DESCRIPTION (( 'STEP AP203' ),
    '1' );
FILE_NAME ('1fbc.STEP',
    '2023-02-13T08:45:19',
    ( '' ),
    ( '' ),
    'SwSTEP 2.0',
    'SolidWorks 2019',
    '' );
FILE_SCHEMA (( 'CONFIG_CONTROL_DESIGN' ));
ENDSEC;

DATA;
#1 = APPROVAL_PERSON_ORGANIZATION ( #69, #120, #134 ) ;
#2 = PRODUCT ( '1fbc', '1fbc', '', ( #117 ) ) ;
#3 = DIRECTION ( 'NONE',  ( -1.000000000000000000, 0.000000000000000000, 0.000000000000000000 ) ) ;
#4 = ADVANCED_FACE ( 'NONE', ( #101 ), #26, .T. ) ;
#5 = DIRECTION ( 'NONE',  ( 0.000000000000000000, 0.000000000000000000, 1.000000000000000000 ) ) ;
#6 = ORIENTED_EDGE ( 'NONE', *, *, #58, .F. ) ;
#7 = DIRECTION ( 'NONE',  ( -0.000000000000000000, -0.000000000000000000, -1.000000000000000000 ) ) ;
#8 = PERSON_AND_ORGANIZATION ( #138, #110 ) ;
#9 = DIRECTION ( 'NONE',  ( 1.000000000000000000, 0.000000000000000000, -0.000000000000000000 ) ) ;
#10 = AXIS2_PLACEMENT_3D ( 'NONE', #248, #156, #232 ) ;
#11 = EDGE_CURVE ( 'NONE', #124, #27, #151, .T. ) ;
#12 = APPROVAL_DATE_TIME ( #14, #44 ) ;
#13 = FACE_OUTER_BOUND ( 'NONE', #180, .T. ) ;
#14 = DATE_AND_TIME ( #191, #21 ) ;
#15 = CARTESIAN_POINT ( 'NONE',  ( 0.000000000000000000, 0.000000000000000000, 7.000000000000000000 ) ) ;
#16 = ORIENTED_EDGE ( 'NONE', *, *, #211, .F. ) ;
#17 = DATE_AND_TIME ( #207, #89 ) ;
#18 = CARTESIAN_POINT ( 'NONE',  ( 0.000000000000000000, 0.000000000000000000, 7.000000000000000000 ) ) ;
#19 = PRODUCT_RELATED_PRODUCT_CATEGORY ( 'detail', '', ( #2 ) ) ;
#20 = DIRECTION ( 'NONE',  ( 0.000000000000000000, 0.000000000000000000, 1.000000000000000000 ) ) ;
#21 = LOCAL_TIME ( 9, 45, 19.00000000000000000, #91 ) ;
#22 = ORIENTED_EDGE ( 'NONE', *, *, #125, .F. ) ;
#23 = EDGE_CURVE ( 'NONE', #63, #206, #253, .T. ) ;
#24 =( GEOMETRIC_REPRESENTATION_CONTEXT ( 3 ) GLOBAL_UNCERTAINTY_ASSIGNED_CONTEXT ( ( #68 ) ) GLOBAL_UNIT_ASSIGNED_CONTEXT ( ( #233, #139, #37 ) ) REPRESENTATION_CONTEXT ( 'NONE', 'WORKASPACE' ) );
#25 = ORIENTED_EDGE ( 'NONE', *, *, #222, .T. ) ;
#26 = CYLINDRICAL_SURFACE ( 'NONE', #166, 9.000000000000001776 ) ;
#27 = VERTEX_POINT ( 'NONE', #221 ) ;
#28 = ORIENTED_EDGE ( 'NONE', *, *, #194, .T. ) ;
#29 = PLANE ( 'NONE',  #46 ) ;
#30 = CALENDAR_DATE ( 2023, 13, 2 ) ;
#31 = CC_DESIGN_PERSON_AND_ORGANIZATION_ASSIGNMENT ( #149, #247, ( #2 ) ) ;
#32 = DATE_AND_TIME ( #54, #152 ) ;
#33 = DIRECTION ( 'NONE',  ( 1.000000000000000000, 0.000000000000000000, 0.000000000000000000 ) ) ;
#34 = APPROVAL_ROLE ( '' ) ;
#35 = PLANE ( 'NONE',  #10 ) ;
#36 = DIRECTION ( 'NONE',  ( 1.000000000000000000, 0.000000000000000000, 0.000000000000000000 ) ) ;
#37 =( NAMED_UNIT ( * ) SI_UNIT ( $, .STERADIAN. ) SOLID_ANGLE_UNIT ( ) );
#38 = AXIS2_PLACEMENT_3D ( 'NONE', #15, #98, #250 ) ;
#39 = DIRECTION ( 'NONE',  ( 1.000000000000000000, 0.000000000000000000, 0.000000000000000000 ) ) ;
#40 = VECTOR ( 'NONE', #210, 1000.000000000000000 ) ;
#41 = APPLICATION_CONTEXT ( 'configuration controlled 3d designs of mechanical parts and assemblies' ) ;
#42 = DIRECTION ( 'NONE',  ( 1.000000000000000000, 0.000000000000000000, 0.000000000000000000 ) ) ;
#43 = ORIENTED_EDGE ( 'NONE', *, *, #11, .F. ) ;
#44 = APPROVAL ( #242, 'NEURÈENÝ' ) ;
#45 = ORIENTED_EDGE ( 'NONE', *, *, #57, .T. ) ;
#46 = AXIS2_PLACEMENT_3D ( 'NONE', #186, #243, #9 ) ;
#47 = CIRCLE ( 'NONE', #147, 9.000000000000001776 ) ;
#48 = VERTEX_POINT ( 'NONE', #64 ) ;
#49 = PERSON_AND_ORGANIZATION_ROLE ( 'design_supplier' ) ;
#50 = CARTESIAN_POINT ( 'NONE',  ( -12.00000000000000178, 0.000000000000000000, 7.000000000000000000 ) ) ;
#51 = AXIS2_PLACEMENT_3D ( 'NONE', #83, #240, #42 ) ;
#52 = SECURITY_CLASSIFICATION ( '', '', #130 ) ;
#53 = DIRECTION ( 'NONE',  ( -0.000000000000000000, -0.000000000000000000, -1.000000000000000000 ) ) ;
#54 = CALENDAR_DATE ( 2023, 13, 2 ) ;
#55 = CARTESIAN_POINT ( 'NONE',  ( -9.000000000000001776, 0.000000000000000000, 400.0000000000000000 ) ) ;
#56 = CIRCLE ( 'NONE', #51, 9.000000000000001776 ) ;
#57 = EDGE_CURVE ( 'NONE', #27, #63, #146, .T. ) ;
#58 = EDGE_CURVE ( 'NONE', #239, #84, #56, .T. ) ;
#59 = ORIENTED_EDGE ( 'NONE', *, *, #211, .T. ) ;
#60 = CC_DESIGN_SECURITY_CLASSIFICATION ( #52, ( #105 ) ) ;
#61 = ORIENTED_EDGE ( 'NONE', *, *, #57, .F. ) ;
#62 = CC_DESIGN_DATE_AND_TIME_ASSIGNMENT ( #32, #209, ( #52 ) ) ;
#63 = VERTEX_POINT ( 'NONE', #225 ) ;
#64 = CARTESIAN_POINT ( 'NONE',  ( 9.000000000000001776, 1.102182119232617911E-15, 400.0000000000000000 ) ) ;
#65 = APPROVAL_DATE_TIME ( #174, #120 ) ;
#66 = APPROVAL_PERSON_ORGANIZATION ( #168, #196, #136 ) ;
#67 = DIRECTION ( 'NONE',  ( 1.000000000000000000, 0.000000000000000000, 0.000000000000000000 ) ) ;
#68 = UNCERTAINTY_MEASURE_WITH_UNIT (LENGTH_MEASURE( 1.000000000000000082E-05 ), #233, 'distance_accuracy_value', 'NONE');
#69 = PERSON_AND_ORGANIZATION ( #138, #110 ) ;
#70 = CARTESIAN_POINT ( 'NONE',  ( 0.000000000000000000, 0.000000000000000000, 0.000000000000000000 ) ) ;
#71 = APPLICATION_PROTOCOL_DEFINITION ( 'international standard', 'config_control_design', 1994, #41 ) ;
#72 = CARTESIAN_POINT ( 'NONE',  ( 0.000000000000000000, 0.000000000000000000, 400.0000000000000000 ) ) ;
#73 = COORDINATED_UNIVERSAL_TIME_OFFSET ( 1, 0, .AHEAD. ) ;
#74 = CARTESIAN_POINT ( 'NONE',  ( 9.000000000000001776, 1.102182119232617911E-15, 400.0000000000000000 ) ) ;
#75 = DIRECTION ( 'NONE',  ( -0.000000000000000000, -0.000000000000000000, -1.000000000000000000 ) ) ;
#76 = DIRECTION ( 'NONE',  ( -1.000000000000000000, 0.000000000000000000, 0.000000000000000000 ) ) ;
#77 = AXIS2_PLACEMENT_3D ( 'NONE', #172, #170, #178 ) ;
#78 = ADVANCED_FACE ( 'NONE', ( #223, #107 ), #29, .T. ) ;
#79 = ADVANCED_FACE ( 'NONE', ( #148 ), #226, .T. ) ;
#80 = CARTESIAN_POINT ( 'NONE',  ( -9.000000000000001776, 0.000000000000000000, 7.000000000000000000 ) ) ;
#81 = DIRECTION ( 'NONE',  ( 1.000000000000000000, 0.000000000000000000, 0.000000000000000000 ) ) ;
#82 = AXIS2_PLACEMENT_3D ( 'NONE', #90, #245, #76 ) ;
#83 = CARTESIAN_POINT ( 'NONE',  ( 0.000000000000000000, 0.000000000000000000, 7.000000000000000000 ) ) ;
#84 = VERTEX_POINT ( 'NONE', #80 ) ;
#85 = CALENDAR_DATE ( 2023, 13, 2 ) ;
#86 = ORIENTED_EDGE ( 'NONE', *, *, #158, .T. ) ;
#87 = AXIS2_PLACEMENT_3D ( 'NONE', #122, #181, #3 ) ;
#88 = PERSON_AND_ORGANIZATION ( #138, #110 ) ;
#89 = LOCAL_TIME ( 9, 45, 19.00000000000000000, #73 ) ;
#90 = CARTESIAN_POINT ( 'NONE',  ( 0.000000000000000000, 0.000000000000000000, 7.000000000000000000 ) ) ;
#91 = COORDINATED_UNIVERSAL_TIME_OFFSET ( 1, 0, .AHEAD. ) ;
#92 = CYLINDRICAL_SURFACE ( 'NONE', #82, 12.00000000000000178 ) ;
#93 = COORDINATED_UNIVERSAL_TIME_OFFSET ( 1, 0, .AHEAD. ) ;
#94 = CARTESIAN_POINT ( 'NONE',  ( -12.00000000000000178, 0.000000000000000000, 7.000000000000000000 ) ) ;
#95 = CLOSED_SHELL ( 'NONE', ( #79, #203, #183, #78, #141, #4, #217 ) ) ;
#96 = PERSON_AND_ORGANIZATION ( #138, #110 ) ;
#97 = CC_DESIGN_APPROVAL ( #44, ( #169 ) ) ;
#98 = DIRECTION ( 'NONE',  ( 0.000000000000000000, 0.000000000000000000, 1.000000000000000000 ) ) ;
#99 = APPROVAL_PERSON_ORGANIZATION ( #96, #44, #34 ) ;
#100 = ORIENTED_EDGE ( 'NONE', *, *, #23, .F. ) ;
#101 = FACE_OUTER_BOUND ( 'NONE', #252, .T. ) ;
#102 = ORIENTED_EDGE ( 'NONE', *, *, #236, .T. ) ;
#103 = AXIS2_PLACEMENT_3D ( 'NONE', #164, #5, #67 ) ;
#104 = DIRECTION ( 'NONE',  ( -0.000000000000000000, -0.000000000000000000, -1.000000000000000000 ) ) ;
#105 = PRODUCT_DEFINITION_FORMATION_WITH_SPECIFIED_SOURCE ( 'LIBOVOLNÝ', '', #2, .NOT_KNOWN. ) ;
#106 = EDGE_LOOP ( 'NONE', ( #182, #6 ) ) ;
#107 = FACE_OUTER_BOUND ( 'NONE', #126, .T. ) ;
#108 = APPLICATION_PROTOCOL_DEFINITION ( 'international standard', 'config_control_design', 1994, #202 ) ;
#109 = COORDINATED_UNIVERSAL_TIME_OFFSET ( 1, 0, .AHEAD. ) ;
#110 = ORGANIZATION ( 'NEURÈENÝ', 'NEURÈENÝ', '' ) ;
#111 = LINE ( 'NONE', #50, #40 ) ;
#112 = DATE_TIME_ROLE ( 'creation_date' ) ;
#113 = LINE ( 'NONE', #74, #121 ) ;
#114 = DIRECTION ( 'NONE',  ( 0.000000000000000000, 0.000000000000000000, 1.000000000000000000 ) ) ;
#115 = AXIS2_PLACEMENT_3D ( 'NONE', #72, #114, #150 ) ;
#116 = CC_DESIGN_PERSON_AND_ORGANIZATION_ASSIGNMENT ( #128, #227, ( #105 ) ) ;
#117 = MECHANICAL_CONTEXT ( 'NONE', #202, 'mechanical' ) ;
#118 = ORIENTED_EDGE ( 'NONE', *, *, #158, .F. ) ;
#119 = LOCAL_TIME ( 9, 45, 19.00000000000000000, #109 ) ;
#120 = APPROVAL ( #187, 'NEURÈENÝ' ) ;
#121 = VECTOR ( 'NONE', #53, 1000.000000000000000 ) ;
#122 = CARTESIAN_POINT ( 'NONE',  ( 0.000000000000000000, 0.000000000000000000, 400.0000000000000000 ) ) ;
#123 = ORIENTED_EDGE ( 'NONE', *, *, #58, .T. ) ;
#124 = VERTEX_POINT ( 'NONE', #94 ) ;
#125 = EDGE_CURVE ( 'NONE', #27, #124, #197, .T. ) ;
#126 = EDGE_LOOP ( 'NONE', ( #198, #159 ) ) ;
#127 = ORIENTED_EDGE ( 'NONE', *, *, #218, .F. ) ;
#128 = PERSON_AND_ORGANIZATION ( #138, #110 ) ;
#129 = FACE_OUTER_BOUND ( 'NONE', #179, .T. ) ;
#130 = SECURITY_CLASSIFICATION_LEVEL ( 'unclassified' ) ;
#131 = CARTESIAN_POINT ( 'NONE',  ( 0.000000000000000000, 0.000000000000000000, 400.0000000000000000 ) ) ;
#132 = VECTOR ( 'NONE', #104, 1000.000000000000000 ) ;
#133 = CIRCLE ( 'NONE', #115, 9.000000000000001776 ) ;
#134 = APPROVAL_ROLE ( '' ) ;
#135 = DIRECTION ( 'NONE',  ( 0.000000000000000000, 0.000000000000000000, 1.000000000000000000 ) ) ;
#136 = APPROVAL_ROLE ( '' ) ;
#137 = CARTESIAN_POINT ( 'NONE',  ( -12.00000000000000178, 0.000000000000000000, 0.000000000000000000 ) ) ;
#138 = PERSON ( 'NEURÈENÝ', 'NEURÈENÝ', 'NEURÈENÝ', ('NEURÈENÝ'), ('NEURÈENÝ'), ('NEURÈENÝ') ) ;
#139 =( NAMED_UNIT ( * ) PLANE_ANGLE_UNIT ( ) SI_UNIT ( $, .RADIAN. ) );
#140 = CARTESIAN_POINT ( 'NONE',  ( 0.000000000000000000, 0.000000000000000000, 0.000000000000000000 ) ) ;
#141 = ADVANCED_FACE ( 'NONE', ( #129 ), #35, .F. ) ;
#142 = EDGE_LOOP ( 'NONE', ( #167, #59 ) ) ;
#143 = VECTOR ( 'NONE', #75, 1000.000000000000000 ) ;
#144 = CARTESIAN_POINT ( 'NONE',  ( 0.000000000000000000, 0.000000000000000000, 0.000000000000000000 ) ) ;
#145 = EDGE_LOOP ( 'NONE', ( #16, #86, #123, #237 ) ) ;
#146 = LINE ( 'NONE', #184, #132 ) ;
#147 = AXIS2_PLACEMENT_3D ( 'NONE', #131, #20, #33 ) ;
#148 = FACE_OUTER_BOUND ( 'NONE', #145, .T. ) ;
#149 = PERSON_AND_ORGANIZATION ( #138, #110 ) ;
#150 = DIRECTION ( 'NONE',  ( 1.000000000000000000, 0.000000000000000000, 0.000000000000000000 ) ) ;
#151 = CIRCLE ( 'NONE', #103, 12.00000000000000178 ) ;
#152 = LOCAL_TIME ( 9, 45, 19.00000000000000000, #231 ) ;
#153 = PERSON_AND_ORGANIZATION ( #138, #110 ) ;
#154 = FACE_OUTER_BOUND ( 'NONE', #142, .T. ) ;
#155 = ORIENTED_EDGE ( 'NONE', *, *, #23, .T. ) ;
#156 = DIRECTION ( 'NONE',  ( 0.000000000000000000, 0.000000000000000000, 1.000000000000000000 ) ) ;
#157 = AXIS2_PLACEMENT_3D ( 'NONE', #144, #241, #81 ) ;
#158 = EDGE_CURVE ( 'NONE', #48, #239, #113, .T. ) ;
#159 = ORIENTED_EDGE ( 'NONE', *, *, #125, .T. ) ;
#160 = VERTEX_POINT ( 'NONE', #55 ) ;
#161 = LOCAL_TIME ( 9, 45, 19.00000000000000000, #93 ) ;
#162 = DIRECTION ( 'NONE',  ( -1.000000000000000000, 0.000000000000000000, 0.000000000000000000 ) ) ;
#163 = CC_DESIGN_PERSON_AND_ORGANIZATION_ASSIGNMENT ( #8, #177, ( #169 ) ) ;
#164 = CARTESIAN_POINT ( 'NONE',  ( 0.000000000000000000, 0.000000000000000000, 7.000000000000000000 ) ) ;
#165 = SHAPE_DEFINITION_REPRESENTATION ( #200, #173 ) ;
#166 = AXIS2_PLACEMENT_3D ( 'NONE', #185, #7, #162 ) ;
#167 = ORIENTED_EDGE ( 'NONE', *, *, #218, .T. ) ;
#168 = PERSON_AND_ORGANIZATION ( #138, #110 ) ;
#169 = PRODUCT_DEFINITION ( 'NEZNÁMÝ', '', #105, #213 ) ;
#170 = DIRECTION ( 'NONE',  ( -0.000000000000000000, -0.000000000000000000, -1.000000000000000000 ) ) ;
#171 = PERSON_AND_ORGANIZATION_ROLE ( 'classification_officer' ) ;
#172 = CARTESIAN_POINT ( 'NONE',  ( 0.000000000000000000, 0.000000000000000000, 7.000000000000000000 ) ) ;
#173 = ADVANCED_BREP_SHAPE_REPRESENTATION ( '1fbc', ( #244, #219 ), #24 ) ;
#174 = DATE_AND_TIME ( #30, #161 ) ;
#175 = DIRECTION ( 'NONE',  ( 0.000000000000000000, 0.000000000000000000, 1.000000000000000000 ) ) ;
#176 = CC_DESIGN_PERSON_AND_ORGANIZATION_ASSIGNMENT ( #88, #49, ( #105 ) ) ;
#177 = PERSON_AND_ORGANIZATION_ROLE ( 'creator' ) ;
#178 = DIRECTION ( 'NONE',  ( -1.000000000000000000, 0.000000000000000000, 0.000000000000000000 ) ) ;
#179 = EDGE_LOOP ( 'NONE', ( #204, #100 ) ) ;
#180 = EDGE_LOOP ( 'NONE', ( #22, #45, #155, #220 ) ) ;
#181 = DIRECTION ( 'NONE',  ( -0.000000000000000000, -0.000000000000000000, -1.000000000000000000 ) ) ;
#182 = ORIENTED_EDGE ( 'NONE', *, *, #255, .F. ) ;
#183 = ADVANCED_FACE ( 'NONE', ( #188 ), #251, .T. ) ;
#184 = CARTESIAN_POINT ( 'NONE',  ( 12.00000000000000178, 1.469576158976824144E-15, 7.000000000000000000 ) ) ;
#185 = CARTESIAN_POINT ( 'NONE',  ( 0.000000000000000000, 0.000000000000000000, 400.0000000000000000 ) ) ;
#186 = CARTESIAN_POINT ( 'NONE',  ( 0.000000000000000000, 0.000000000000000000, 7.000000000000000000 ) ) ;
#187 = APPROVAL_STATUS ( 'not_yet_approved' ) ;
#188 = FACE_OUTER_BOUND ( 'NONE', #199, .T. ) ;
#189 = APPROVAL_DATE_TIME ( #214, #196 ) ;
#190 = DIRECTION ( 'NONE',  ( 1.000000000000000000, 0.000000000000000000, -0.000000000000000000 ) ) ;
#191 = CALENDAR_DATE ( 2023, 13, 2 ) ;
#192 = CARTESIAN_POINT ( 'NONE',  ( 9.000000000000001776, 1.102182119232617911E-15, 7.000000000000000000 ) ) ;
#193 = LINE ( 'NONE', #212, #143 ) ;
#194 = EDGE_CURVE ( 'NONE', #124, #206, #111, .T. ) ;
#195 = AXIS2_PLACEMENT_3D ( 'NONE', #70, #135, #36 ) ;
#196 = APPROVAL ( #228, 'NEURÈENÝ' ) ;
#197 = CIRCLE ( 'NONE', #235, 12.00000000000000178 ) ;
#198 = ORIENTED_EDGE ( 'NONE', *, *, #11, .T. ) ;
#199 = EDGE_LOOP ( 'NONE', ( #61, #43, #28, #25 ) ) ;
#200 = PRODUCT_DEFINITION_SHAPE ( 'NONE', 'NONE',  #169 ) ;
#201 = ORIENTED_EDGE ( 'NONE', *, *, #255, .T. ) ;
#202 = APPLICATION_CONTEXT ( 'configuration controlled 3d designs of mechanical parts and assemblies' ) ;
#203 = ADVANCED_FACE ( 'NONE', ( #13 ), #92, .T. ) ;
#204 = ORIENTED_EDGE ( 'NONE', *, *, #222, .F. ) ;
#205 = CIRCLE ( 'NONE', #38, 9.000000000000001776 ) ;
#206 = VERTEX_POINT ( 'NONE', #137 ) ;
#207 = CALENDAR_DATE ( 2023, 13, 2 ) ;
#208 = PLANE ( 'NONE',  #238 ) ;
#209 = DATE_TIME_ROLE ( 'classification_date' ) ;
#210 = DIRECTION ( 'NONE',  ( -0.000000000000000000, -0.000000000000000000, -1.000000000000000000 ) ) ;
#211 = EDGE_CURVE ( 'NONE', #48, #160, #47, .T. ) ;
#212 = CARTESIAN_POINT ( 'NONE',  ( -9.000000000000001776, 0.000000000000000000, 400.0000000000000000 ) ) ;
#213 = DESIGN_CONTEXT ( 'detailed design', #41, 'design' ) ;
#214 = DATE_AND_TIME ( #85, #119 ) ;
#215 = DIRECTION ( 'NONE',  ( 0.000000000000000000, 0.000000000000000000, 1.000000000000000000 ) ) ;
#216 = DIRECTION ( 'NONE',  ( 0.000000000000000000, 0.000000000000000000, 1.000000000000000000 ) ) ;
#217 = ADVANCED_FACE ( 'NONE', ( #154 ), #208, .T. ) ;
#218 = EDGE_CURVE ( 'NONE', #160, #48, #133, .T. ) ;
#219 = AXIS2_PLACEMENT_3D ( 'NONE', #140, #216, #39 ) ;
#220 = ORIENTED_EDGE ( 'NONE', *, *, #194, .F. ) ;
#221 = CARTESIAN_POINT ( 'NONE',  ( 12.00000000000000178, 1.469576158976824144E-15, 7.000000000000000000 ) ) ;
#222 = EDGE_CURVE ( 'NONE', #206, #63, #230, .T. ) ;
#223 = FACE_BOUND ( 'NONE', #106, .T. ) ;
#224 = CC_DESIGN_PERSON_AND_ORGANIZATION_ASSIGNMENT ( #153, #171, ( #52 ) ) ;
#225 = CARTESIAN_POINT ( 'NONE',  ( 12.00000000000000178, 1.469576158976824144E-15, 0.000000000000000000 ) ) ;
#226 = CYLINDRICAL_SURFACE ( 'NONE', #87, 9.000000000000001776 ) ;
#227 = PERSON_AND_ORGANIZATION_ROLE ( 'creator' ) ;
#228 = APPROVAL_STATUS ( 'not_yet_approved' ) ;
#229 = DIRECTION ( 'NONE',  ( 1.000000000000000000, 0.000000000000000000, 0.000000000000000000 ) ) ;
#230 = CIRCLE ( 'NONE', #195, 12.00000000000000178 ) ;
#231 = COORDINATED_UNIVERSAL_TIME_OFFSET ( 1, 0, .AHEAD. ) ;
#232 = DIRECTION ( 'NONE',  ( 1.000000000000000000, 0.000000000000000000, -0.000000000000000000 ) ) ;
#233 =( LENGTH_UNIT ( ) NAMED_UNIT ( * ) SI_UNIT ( .MILLI., .METRE. ) );
#234 = CC_DESIGN_DATE_AND_TIME_ASSIGNMENT ( #17, #112, ( #169 ) ) ;
#235 = AXIS2_PLACEMENT_3D ( 'NONE', #18, #175, #229 ) ;
#236 = EDGE_CURVE ( 'NONE', #160, #84, #193, .T. ) ;
#237 = ORIENTED_EDGE ( 'NONE', *, *, #236, .F. ) ;
#238 = AXIS2_PLACEMENT_3D ( 'NONE', #246, #215, #190 ) ;
#239 = VERTEX_POINT ( 'NONE', #192 ) ;
#240 = DIRECTION ( 'NONE',  ( 0.000000000000000000, 0.000000000000000000, 1.000000000000000000 ) ) ;
#241 = DIRECTION ( 'NONE',  ( 0.000000000000000000, 0.000000000000000000, 1.000000000000000000 ) ) ;
#242 = APPROVAL_STATUS ( 'not_yet_approved' ) ;
#243 = DIRECTION ( 'NONE',  ( 0.000000000000000000, 0.000000000000000000, 1.000000000000000000 ) ) ;
#244 = MANIFOLD_SOLID_BREP ( 'Pøidat vysunutím3', #95 ) ;
#245 = DIRECTION ( 'NONE',  ( -0.000000000000000000, -0.000000000000000000, -1.000000000000000000 ) ) ;
#246 = CARTESIAN_POINT ( 'NONE',  ( 0.000000000000000000, 0.000000000000000000, 400.0000000000000000 ) ) ;
#247 = PERSON_AND_ORGANIZATION_ROLE ( 'design_owner' ) ;
#248 = CARTESIAN_POINT ( 'NONE',  ( 0.000000000000000000, 0.000000000000000000, 0.000000000000000000 ) ) ;
#249 = CC_DESIGN_APPROVAL ( #120, ( #105 ) ) ;
#250 = DIRECTION ( 'NONE',  ( 1.000000000000000000, 0.000000000000000000, 0.000000000000000000 ) ) ;
#251 = CYLINDRICAL_SURFACE ( 'NONE', #77, 12.00000000000000178 ) ;
#252 = EDGE_LOOP ( 'NONE', ( #118, #127, #102, #201 ) ) ;
#253 = CIRCLE ( 'NONE', #157, 12.00000000000000178 ) ;
#254 = CC_DESIGN_APPROVAL ( #196, ( #52 ) ) ;
#255 = EDGE_CURVE ( 'NONE', #84, #239, #205, .T. ) ;
ENDSEC;
END-ISO-10303-21;
