ISO-10303-21;
HEADER;
FILE_DESCRIPTION (( 'STEP AP203' ),
    '1' );
FILE_NAME ('1224.STEP',
    '2023-02-13T15:23:22',
    ( '' ),
    ( '' ),
    'SwSTEP 2.0',
    'SolidWorks 2019',
    '' );
FILE_SCHEMA (( 'CONFIG_CONTROL_DESIGN' ));
ENDSEC;

DATA;
#1 = DESIGN_CONTEXT ( 'detailed design', #160, 'design' ) ;
#2 = AXIS2_PLACEMENT_3D ( 'NONE', #184, #9, #75 ) ;
#3 = ORIENTED_EDGE ( 'NONE', *, *, #254, .T. ) ;
#4 = EDGE_LOOP ( 'NONE', ( #227, #10, #122, #30 ) ) ;
#5 = CC_DESIGN_PERSON_AND_ORGANIZATION_ASSIGNMENT ( #188, #114, ( #173 ) ) ;
#6 = APPROVAL_PERSON_ORGANIZATION ( #195, #109, #100 ) ;
#7 = CARTESIAN_POINT ( 'NONE',  ( 0.000000000000000000, 0.000000000000000000, 0.000000000000000000 ) ) ;
#8 = ORIENTED_EDGE ( 'NONE', *, *, #174, .F. ) ;
#9 = DIRECTION ( 'NONE',  ( 0.000000000000000000, 0.000000000000000000, 1.000000000000000000 ) ) ;
#10 = ORIENTED_EDGE ( 'NONE', *, *, #102, .T. ) ;
#11 = CC_DESIGN_APPROVAL ( #177, ( #222 ) ) ;
#12 = DIRECTION ( 'NONE',  ( 0.000000000000000000, 0.000000000000000000, 1.000000000000000000 ) ) ;
#13 = CARTESIAN_POINT ( 'NONE',  ( 2.750000000000000000, 3.367778697655221012E-16, 3.000000000000000000 ) ) ;
#14 = COORDINATED_UNIVERSAL_TIME_OFFSET ( 1, 0, .AHEAD. ) ;
#15 = CC_DESIGN_DATE_AND_TIME_ASSIGNMENT ( #52, #55, ( #245 ) ) ;
#16 = APPROVAL_DATE_TIME ( #172, #109 ) ;
#17 = AXIS2_PLACEMENT_3D ( 'NONE', #79, #34, #234 ) ;
#18 = CARTESIAN_POINT ( 'NONE',  ( 2.750000000000000000, 3.367778697655221012E-16, 400.0000000000000000 ) ) ;
#19 = LOCAL_TIME ( 16, 23, 22.00000000000000000, #96 ) ;
#20 = EDGE_CURVE ( 'NONE', #217, #165, #97, .T. ) ;
#21 = CYLINDRICAL_SURFACE ( 'NONE', #166, 2.750000000000000000 ) ;
#22 = CC_DESIGN_APPROVAL ( #238, ( #173 ) ) ;
#23 = MANIFOLD_SOLID_BREP ( 'Pøidat vysunutím3', #129 ) ;
#24 = ORIENTED_EDGE ( 'NONE', *, *, #180, .T. ) ;
#25 = ORIENTED_EDGE ( 'NONE', *, *, #20, .T. ) ;
#26 = AXIS2_PLACEMENT_3D ( 'NONE', #127, #12, #101 ) ;
#27 = CARTESIAN_POINT ( 'NONE',  ( 0.000000000000000000, 0.000000000000000000, 400.0000000000000000 ) ) ;
#28 = ADVANCED_BREP_SHAPE_REPRESENTATION ( '1224', ( #23, #152 ), #191 ) ;
#29 = EDGE_LOOP ( 'NONE', ( #125, #243, #159, #84 ) ) ;
#30 = ORIENTED_EDGE ( 'NONE', *, *, #93, .F. ) ;
#31 = PLANE ( 'NONE',  #201 ) ;
#32 = DIRECTION ( 'NONE',  ( -1.000000000000000000, 0.000000000000000000, 0.000000000000000000 ) ) ;
#33 = CARTESIAN_POINT ( 'NONE',  ( 5.000000000000000000, 6.123233995736766282E-16, 3.000000000000000000 ) ) ;
#34 = DIRECTION ( 'NONE',  ( 0.000000000000000000, 0.000000000000000000, 1.000000000000000000 ) ) ;
#35 = EDGE_LOOP ( 'NONE', ( #113, #3 ) ) ;
#36 = FACE_OUTER_BOUND ( 'NONE', #4, .T. ) ;
#37 = PERSON_AND_ORGANIZATION ( #161, #123 ) ;
#38 = DIRECTION ( 'NONE',  ( 0.000000000000000000, 0.000000000000000000, 1.000000000000000000 ) ) ;
#39 = VECTOR ( 'NONE', #120, 1000.000000000000000 ) ;
#40 = PERSON_AND_ORGANIZATION ( #161, #123 ) ;
#41 = DIRECTION ( 'NONE',  ( 0.000000000000000000, 0.000000000000000000, 1.000000000000000000 ) ) ;
#42 = SHAPE_DEFINITION_REPRESENTATION ( #118, #28 ) ;
#43 = LINE ( 'NONE', #18, #39 ) ;
#44 = CIRCLE ( 'NONE', #215, 5.000000000000000000 ) ;
#45 = VECTOR ( 'NONE', #128, 1000.000000000000000 ) ;
#46 = CC_DESIGN_APPROVAL ( #109, ( #245 ) ) ;
#47 = EDGE_CURVE ( 'NONE', #107, #147, #54, .T. ) ;
#48 = FACE_OUTER_BOUND ( 'NONE', #65, .T. ) ;
#49 = CC_DESIGN_SECURITY_CLASSIFICATION ( #222, ( #173 ) ) ;
#50 = DIRECTION ( 'NONE',  ( 0.000000000000000000, 0.000000000000000000, 1.000000000000000000 ) ) ;
#51 = DIRECTION ( 'NONE',  ( 1.000000000000000000, 0.000000000000000000, 0.000000000000000000 ) ) ;
#52 = DATE_AND_TIME ( #236, #19 ) ;
#53 = CIRCLE ( 'NONE', #196, 5.000000000000000000 ) ;
#54 = CIRCLE ( 'NONE', #197, 2.750000000000000000 ) ;
#55 = DATE_TIME_ROLE ( 'creation_date' ) ;
#56 = SECURITY_CLASSIFICATION_LEVEL ( 'unclassified' ) ;
#57 = APPROVAL_STATUS ( 'not_yet_approved' ) ;
#58 = CARTESIAN_POINT ( 'NONE',  ( 0.000000000000000000, 0.000000000000000000, 3.000000000000000000 ) ) ;
#59 = APPROVAL_DATE_TIME ( #156, #177 ) ;
#60 = DIRECTION ( 'NONE',  ( -0.000000000000000000, -0.000000000000000000, -1.000000000000000000 ) ) ;
#61 = APPROVAL_PERSON_ORGANIZATION ( #130, #238, #192 ) ;
#62 = PLANE ( 'NONE',  #94 ) ;
#63 = VERTEX_POINT ( 'NONE', #91 ) ;
#64 = ADVANCED_FACE ( 'NONE', ( #167 ), #95, .T. ) ;
#65 = EDGE_LOOP ( 'NONE', ( #8, #185 ) ) ;
#66 = CC_DESIGN_PERSON_AND_ORGANIZATION_ASSIGNMENT ( #37, #168, ( #245 ) ) ;
#67 = AXIS2_PLACEMENT_3D ( 'NONE', #106, #108, #182 ) ;
#68 = ORIENTED_EDGE ( 'NONE', *, *, #174, .T. ) ;
#69 = VECTOR ( 'NONE', #190, 1000.000000000000000 ) ;
#70 = LOCAL_TIME ( 16, 23, 22.00000000000000000, #14 ) ;
#71 = ORIENTED_EDGE ( 'NONE', *, *, #47, .F. ) ;
#72 = FACE_OUTER_BOUND ( 'NONE', #35, .T. ) ;
#73 = LINE ( 'NONE', #189, #45 ) ;
#74 = AXIS2_PLACEMENT_3D ( 'NONE', #92, #136, #208 ) ;
#75 = DIRECTION ( 'NONE',  ( 1.000000000000000000, 0.000000000000000000, 0.000000000000000000 ) ) ;
#76 = APPROVAL_STATUS ( 'not_yet_approved' ) ;
#77 = DIRECTION ( 'NONE',  ( 0.000000000000000000, 0.000000000000000000, 1.000000000000000000 ) ) ;
#78 = PERSON_AND_ORGANIZATION ( #161, #123 ) ;
#79 = CARTESIAN_POINT ( 'NONE',  ( 0.000000000000000000, 0.000000000000000000, 3.000000000000000000 ) ) ;
#80 = FACE_OUTER_BOUND ( 'NONE', #250, .T. ) ;
#81 = CARTESIAN_POINT ( 'NONE',  ( -2.750000000000000000, 0.000000000000000000, 3.000000000000000000 ) ) ;
#82 = CC_DESIGN_PERSON_AND_ORGANIZATION_ASSIGNMENT ( #199, #194, ( #211 ) ) ;
#83 = CARTESIAN_POINT ( 'NONE',  ( 5.000000000000000000, 6.123233995736766282E-16, 0.000000000000000000 ) ) ;
#84 = ORIENTED_EDGE ( 'NONE', *, *, #124, .F. ) ;
#85 = CARTESIAN_POINT ( 'NONE',  ( -2.750000000000000000, 0.000000000000000000, 400.0000000000000000 ) ) ;
#86 = DIRECTION ( 'NONE',  ( 0.000000000000000000, 0.000000000000000000, 1.000000000000000000 ) ) ;
#87 = CARTESIAN_POINT ( 'NONE',  ( 0.000000000000000000, 0.000000000000000000, 3.000000000000000000 ) ) ;
#88 = CARTESIAN_POINT ( 'NONE',  ( 0.000000000000000000, 0.000000000000000000, 0.000000000000000000 ) ) ;
#89 = CIRCLE ( 'NONE', #67, 2.750000000000000000 ) ;
#90 = FACE_BOUND ( 'NONE', #163, .T. ) ;
#91 = CARTESIAN_POINT ( 'NONE',  ( -5.000000000000000000, 0.000000000000000000, 3.000000000000000000 ) ) ;
#92 = CARTESIAN_POINT ( 'NONE',  ( 0.000000000000000000, 0.000000000000000000, 400.0000000000000000 ) ) ;
#93 = EDGE_CURVE ( 'NONE', #63, #144, #73, .T. ) ;
#94 = AXIS2_PLACEMENT_3D ( 'NONE', #27, #224, #103 ) ;
#95 = CYLINDRICAL_SURFACE ( 'NONE', #105, 5.000000000000000000 ) ;
#96 = COORDINATED_UNIVERSAL_TIME_OFFSET ( 1, 0, .AHEAD. ) ;
#97 = CIRCLE ( 'NONE', #2, 2.750000000000000000 ) ;
#98 = CARTESIAN_POINT ( 'NONE',  ( 0.000000000000000000, 0.000000000000000000, 400.0000000000000000 ) ) ;
#99 = LOCAL_TIME ( 16, 23, 22.00000000000000000, #117 ) ;
#100 = APPROVAL_ROLE ( '' ) ;
#101 = DIRECTION ( 'NONE',  ( 1.000000000000000000, 0.000000000000000000, 0.000000000000000000 ) ) ;
#102 = EDGE_CURVE ( 'NONE', #220, #171, #205, .T. ) ;
#103 = DIRECTION ( 'NONE',  ( 1.000000000000000000, 0.000000000000000000, -0.000000000000000000 ) ) ;
#104 = CIRCLE ( 'NONE', #26, 5.000000000000000000 ) ;
#105 = AXIS2_PLACEMENT_3D ( 'NONE', #126, #246, #32 ) ;
#106 = CARTESIAN_POINT ( 'NONE',  ( 0.000000000000000000, 0.000000000000000000, 3.000000000000000000 ) ) ;
#107 = VERTEX_POINT ( 'NONE', #81 ) ;
#108 = DIRECTION ( 'NONE',  ( 0.000000000000000000, 0.000000000000000000, 1.000000000000000000 ) ) ;
#109 = APPROVAL ( #76, 'NEURÈENÝ' ) ;
#110 = CIRCLE ( 'NONE', #164, 2.750000000000000000 ) ;
#111 = EDGE_CURVE ( 'NONE', #217, #147, #43, .T. ) ;
#112 =( NAMED_UNIT ( * ) PLANE_ANGLE_UNIT ( ) SI_UNIT ( $, .RADIAN. ) );
#113 = ORIENTED_EDGE ( 'NONE', *, *, #244, .T. ) ;
#114 = PERSON_AND_ORGANIZATION_ROLE ( 'design_supplier' ) ;
#115 = CARTESIAN_POINT ( 'NONE',  ( 0.000000000000000000, 0.000000000000000000, 0.000000000000000000 ) ) ;
#116 = DIRECTION ( 'NONE',  ( 1.000000000000000000, 0.000000000000000000, 0.000000000000000000 ) ) ;
#117 = COORDINATED_UNIVERSAL_TIME_OFFSET ( 1, 0, .AHEAD. ) ;
#118 = PRODUCT_DEFINITION_SHAPE ( 'NONE', 'NONE',  #245 ) ;
#119 = PERSON_AND_ORGANIZATION ( #161, #123 ) ;
#120 = DIRECTION ( 'NONE',  ( -0.000000000000000000, -0.000000000000000000, -1.000000000000000000 ) ) ;
#121 = ADVANCED_FACE ( 'NONE', ( #36 ), #158, .T. ) ;
#122 = ORIENTED_EDGE ( 'NONE', *, *, #200, .T. ) ;
#123 = ORGANIZATION ( 'NEURÈENÝ', 'NEURÈENÝ', '' ) ;
#124 = EDGE_CURVE ( 'NONE', #165, #107, #134, .T. ) ;
#125 = ORIENTED_EDGE ( 'NONE', *, *, #20, .F. ) ;
#126 = CARTESIAN_POINT ( 'NONE',  ( 0.000000000000000000, 0.000000000000000000, 3.000000000000000000 ) ) ;
#127 = CARTESIAN_POINT ( 'NONE',  ( 0.000000000000000000, 0.000000000000000000, 3.000000000000000000 ) ) ;
#128 = DIRECTION ( 'NONE',  ( -0.000000000000000000, -0.000000000000000000, -1.000000000000000000 ) ) ;
#129 = CLOSED_SHELL ( 'NONE', ( #143, #121, #64, #179, #162, #216, #157 ) ) ;
#130 = PERSON_AND_ORGANIZATION ( #161, #123 ) ;
#131 = PRODUCT_RELATED_PRODUCT_CATEGORY ( 'detail', '', ( #211 ) ) ;
#132 = COORDINATED_UNIVERSAL_TIME_OFFSET ( 1, 0, .AHEAD. ) ;
#133 = DIRECTION ( 'NONE',  ( 1.000000000000000000, 0.000000000000000000, 0.000000000000000000 ) ) ;
#134 = LINE ( 'NONE', #207, #69 ) ;
#135 = APPROVAL_STATUS ( 'not_yet_approved' ) ;
#136 = DIRECTION ( 'NONE',  ( -0.000000000000000000, -0.000000000000000000, -1.000000000000000000 ) ) ;
#137 = DIRECTION ( 'NONE',  ( -1.000000000000000000, 0.000000000000000000, 0.000000000000000000 ) ) ;
#138 = DIRECTION ( 'NONE',  ( 1.000000000000000000, 0.000000000000000000, 0.000000000000000000 ) ) ;
#139 = UNCERTAINTY_MEASURE_WITH_UNIT (LENGTH_MEASURE( 1.000000000000000082E-05 ), #175, 'distance_accuracy_value', 'NONE');
#140 = DIRECTION ( 'NONE',  ( -1.000000000000000000, 0.000000000000000000, 0.000000000000000000 ) ) ;
#141 = MECHANICAL_CONTEXT ( 'NONE', #151, 'mechanical' ) ;
#142 = ORIENTED_EDGE ( 'NONE', *, *, #180, .F. ) ;
#143 = ADVANCED_FACE ( 'NONE', ( #214 ), #21, .T. ) ;
#144 = VERTEX_POINT ( 'NONE', #193 ) ;
#145 = VECTOR ( 'NONE', #212, 1000.000000000000000 ) ;
#146 = LOCAL_TIME ( 16, 23, 22.00000000000000000, #229 ) ;
#147 = VERTEX_POINT ( 'NONE', #13 ) ;
#148 = CARTESIAN_POINT ( 'NONE',  ( 5.000000000000000000, 6.123233995736766282E-16, 3.000000000000000000 ) ) ;
#149 = CARTESIAN_POINT ( 'NONE',  ( 0.000000000000000000, 0.000000000000000000, 0.000000000000000000 ) ) ;
#150 = CIRCLE ( 'NONE', #235, 5.000000000000000000 ) ;
#151 = APPLICATION_CONTEXT ( 'configuration controlled 3d designs of mechanical parts and assemblies' ) ;
#152 = AXIS2_PLACEMENT_3D ( 'NONE', #149, #228, #138 ) ;
#153 = DATE_AND_TIME ( #251, #99 ) ;
#154 = CYLINDRICAL_SURFACE ( 'NONE', #74, 2.750000000000000000 ) ;
#155 = CARTESIAN_POINT ( 'NONE',  ( 0.000000000000000000, 0.000000000000000000, 400.0000000000000000 ) ) ;
#156 = DATE_AND_TIME ( #255, #70 ) ;
#157 = ADVANCED_FACE ( 'NONE', ( #80 ), #62, .T. ) ;
#158 = CYLINDRICAL_SURFACE ( 'NONE', #198, 5.000000000000000000 ) ;
#159 = ORIENTED_EDGE ( 'NONE', *, *, #169, .T. ) ;
#160 = APPLICATION_CONTEXT ( 'configuration controlled 3d designs of mechanical parts and assemblies' ) ;
#161 = PERSON ( 'NEURÈENÝ', 'NEURÈENÝ', 'NEURÈENÝ', ('NEURÈENÝ'), ('NEURÈENÝ'), ('NEURÈENÝ') ) ;
#162 = ADVANCED_FACE ( 'NONE', ( #48 ), #31, .F. ) ;
#163 = EDGE_LOOP ( 'NONE', ( #71, #241 ) ) ;
#164 = AXIS2_PLACEMENT_3D ( 'NONE', #98, #77, #204 ) ;
#165 = VERTEX_POINT ( 'NONE', #85 ) ;
#166 = AXIS2_PLACEMENT_3D ( 'NONE', #155, #232, #137 ) ;
#167 = FACE_OUTER_BOUND ( 'NONE', #223, .T. ) ;
#168 = PERSON_AND_ORGANIZATION_ROLE ( 'creator' ) ;
#169 = EDGE_CURVE ( 'NONE', #147, #107, #89, .T. ) ;
#170 = ORIENTED_EDGE ( 'NONE', *, *, #124, .T. ) ;
#171 = VERTEX_POINT ( 'NONE', #83 ) ;
#172 = DATE_AND_TIME ( #248, #146 ) ;
#173 = PRODUCT_DEFINITION_FORMATION_WITH_SPECIFIED_SOURCE ( 'LIBOVOLNÝ', '', #211, .NOT_KNOWN. ) ;
#174 = EDGE_CURVE ( 'NONE', #144, #171, #150, .T. ) ;
#175 =( LENGTH_UNIT ( ) NAMED_UNIT ( * ) SI_UNIT ( .MILLI., .METRE. ) );
#176 = PERSON_AND_ORGANIZATION_ROLE ( 'creator' ) ;
#177 = APPROVAL ( #135, 'NEURÈENÝ' ) ;
#178 = LOCAL_TIME ( 16, 23, 22.00000000000000000, #132 ) ;
#179 = ADVANCED_FACE ( 'NONE', ( #90, #72 ), #230, .T. ) ;
#180 = EDGE_CURVE ( 'NONE', #165, #217, #110, .T. ) ;
#181 = DIRECTION ( 'NONE',  ( 1.000000000000000000, 0.000000000000000000, -0.000000000000000000 ) ) ;
#182 = DIRECTION ( 'NONE',  ( 1.000000000000000000, 0.000000000000000000, 0.000000000000000000 ) ) ;
#183 = ORIENTED_EDGE ( 'NONE', *, *, #111, .F. ) ;
#184 = CARTESIAN_POINT ( 'NONE',  ( 0.000000000000000000, 0.000000000000000000, 400.0000000000000000 ) ) ;
#185 = ORIENTED_EDGE ( 'NONE', *, *, #200, .F. ) ;
#186 = APPLICATION_PROTOCOL_DEFINITION ( 'international standard', 'config_control_design', 1994, #151 ) ;
#187 = CC_DESIGN_PERSON_AND_ORGANIZATION_ASSIGNMENT ( #40, #176, ( #173 ) ) ;
#188 = PERSON_AND_ORGANIZATION ( #161, #123 ) ;
#189 = CARTESIAN_POINT ( 'NONE',  ( -5.000000000000000000, 0.000000000000000000, 3.000000000000000000 ) ) ;
#190 = DIRECTION ( 'NONE',  ( -0.000000000000000000, -0.000000000000000000, -1.000000000000000000 ) ) ;
#191 =( GEOMETRIC_REPRESENTATION_CONTEXT ( 3 ) GLOBAL_UNCERTAINTY_ASSIGNED_CONTEXT ( ( #139 ) ) GLOBAL_UNIT_ASSIGNED_CONTEXT ( ( #175, #112, #226 ) ) REPRESENTATION_CONTEXT ( 'NONE', 'WORKASPACE' ) );
#192 = APPROVAL_ROLE ( '' ) ;
#193 = CARTESIAN_POINT ( 'NONE',  ( -5.000000000000000000, 0.000000000000000000, 0.000000000000000000 ) ) ;
#194 = PERSON_AND_ORGANIZATION_ROLE ( 'design_owner' ) ;
#195 = PERSON_AND_ORGANIZATION ( #161, #123 ) ;
#196 = AXIS2_PLACEMENT_3D ( 'NONE', #115, #41, #133 ) ;
#197 = AXIS2_PLACEMENT_3D ( 'NONE', #87, #221, #51 ) ;
#198 = AXIS2_PLACEMENT_3D ( 'NONE', #253, #60, #140 ) ;
#199 = PERSON_AND_ORGANIZATION ( #161, #123 ) ;
#200 = EDGE_CURVE ( 'NONE', #171, #144, #53, .T. ) ;
#201 = AXIS2_PLACEMENT_3D ( 'NONE', #88, #50, #181 ) ;
#202 = ORIENTED_EDGE ( 'NONE', *, *, #47, .T. ) ;
#203 = ORIENTED_EDGE ( 'NONE', *, *, #102, .F. ) ;
#204 = DIRECTION ( 'NONE',  ( 1.000000000000000000, 0.000000000000000000, 0.000000000000000000 ) ) ;
#205 = LINE ( 'NONE', #33, #145 ) ;
#206 = PERSON_AND_ORGANIZATION_ROLE ( 'classification_officer' ) ;
#207 = CARTESIAN_POINT ( 'NONE',  ( -2.750000000000000000, 0.000000000000000000, 400.0000000000000000 ) ) ;
#208 = DIRECTION ( 'NONE',  ( -1.000000000000000000, 0.000000000000000000, 0.000000000000000000 ) ) ;
#209 = APPROVAL_DATE_TIME ( #247, #238 ) ;
#210 = CARTESIAN_POINT ( 'NONE',  ( 2.750000000000000000, 3.367778697655221012E-16, 400.0000000000000000 ) ) ;
#211 = PRODUCT ( '1224', '1224', '', ( #141 ) ) ;
#212 = DIRECTION ( 'NONE',  ( -0.000000000000000000, -0.000000000000000000, -1.000000000000000000 ) ) ;
#213 = CC_DESIGN_PERSON_AND_ORGANIZATION_ASSIGNMENT ( #119, #206, ( #222 ) ) ;
#214 = FACE_OUTER_BOUND ( 'NONE', #29, .T. ) ;
#215 = AXIS2_PLACEMENT_3D ( 'NONE', #58, #38, #116 ) ;
#216 = ADVANCED_FACE ( 'NONE', ( #249 ), #154, .T. ) ;
#217 = VERTEX_POINT ( 'NONE', #210 ) ;
#218 = EDGE_LOOP ( 'NONE', ( #183, #142, #170, #202 ) ) ;
#219 = CC_DESIGN_DATE_AND_TIME_ASSIGNMENT ( #153, #231, ( #222 ) ) ;
#220 = VERTEX_POINT ( 'NONE', #148 ) ;
#221 = DIRECTION ( 'NONE',  ( 0.000000000000000000, 0.000000000000000000, 1.000000000000000000 ) ) ;
#222 = SECURITY_CLASSIFICATION ( '', '', #56 ) ;
#223 = EDGE_LOOP ( 'NONE', ( #203, #225, #242, #68 ) ) ;
#224 = DIRECTION ( 'NONE',  ( 0.000000000000000000, 0.000000000000000000, 1.000000000000000000 ) ) ;
#225 = ORIENTED_EDGE ( 'NONE', *, *, #244, .F. ) ;
#226 =( NAMED_UNIT ( * ) SI_UNIT ( $, .STERADIAN. ) SOLID_ANGLE_UNIT ( ) );
#227 = ORIENTED_EDGE ( 'NONE', *, *, #254, .F. ) ;
#228 = DIRECTION ( 'NONE',  ( 0.000000000000000000, 0.000000000000000000, 1.000000000000000000 ) ) ;
#229 = COORDINATED_UNIVERSAL_TIME_OFFSET ( 1, 0, .AHEAD. ) ;
#230 = PLANE ( 'NONE',  #17 ) ;
#231 = DATE_TIME_ROLE ( 'classification_date' ) ;
#232 = DIRECTION ( 'NONE',  ( -0.000000000000000000, -0.000000000000000000, -1.000000000000000000 ) ) ;
#233 = APPROVAL_ROLE ( '' ) ;
#234 = DIRECTION ( 'NONE',  ( 1.000000000000000000, 0.000000000000000000, -0.000000000000000000 ) ) ;
#235 = AXIS2_PLACEMENT_3D ( 'NONE', #7, #86, #239 ) ;
#236 = CALENDAR_DATE ( 2023, 13, 2 ) ;
#237 = APPLICATION_PROTOCOL_DEFINITION ( 'international standard', 'config_control_design', 1994, #160 ) ;
#238 = APPROVAL ( #57, 'NEURÈENÝ' ) ;
#239 = DIRECTION ( 'NONE',  ( 1.000000000000000000, 0.000000000000000000, 0.000000000000000000 ) ) ;
#240 = APPROVAL_PERSON_ORGANIZATION ( #78, #177, #233 ) ;
#241 = ORIENTED_EDGE ( 'NONE', *, *, #169, .F. ) ;
#242 = ORIENTED_EDGE ( 'NONE', *, *, #93, .T. ) ;
#243 = ORIENTED_EDGE ( 'NONE', *, *, #111, .T. ) ;
#244 = EDGE_CURVE ( 'NONE', #63, #220, #44, .T. ) ;
#245 = PRODUCT_DEFINITION ( 'NEZNÁMÝ', '', #173, #1 ) ;
#246 = DIRECTION ( 'NONE',  ( -0.000000000000000000, -0.000000000000000000, -1.000000000000000000 ) ) ;
#247 = DATE_AND_TIME ( #252, #178 ) ;
#248 = CALENDAR_DATE ( 2023, 13, 2 ) ;
#249 = FACE_OUTER_BOUND ( 'NONE', #218, .T. ) ;
#250 = EDGE_LOOP ( 'NONE', ( #24, #25 ) ) ;
#251 = CALENDAR_DATE ( 2023, 13, 2 ) ;
#252 = CALENDAR_DATE ( 2023, 13, 2 ) ;
#253 = CARTESIAN_POINT ( 'NONE',  ( 0.000000000000000000, 0.000000000000000000, 3.000000000000000000 ) ) ;
#254 = EDGE_CURVE ( 'NONE', #220, #63, #104, .T. ) ;
#255 = CALENDAR_DATE ( 2023, 13, 2 ) ;
ENDSEC;
END-ISO-10303-21;
