ISO-10303-21;
HEADER;
FILE_DESCRIPTION (( 'STEP AP203' ),
    '1' );
FILE_NAME ('86cc.STEP',
    '2022-07-07T17:09:12',
    ( '' ),
    ( '' ),
    'SwSTEP 2.0',
    'SolidWorks 2019',
    '' );
FILE_SCHEMA (( 'CONFIG_CONTROL_DESIGN' ));
ENDSEC;

DATA;
#1 = ORIENTED_EDGE ( 'NONE', *, *, #17, .F. ) ;
#2 =( GEOMETRIC_REPRESENTATION_CONTEXT ( 3 ) GLOBAL_UNCERTAINTY_ASSIGNED_CONTEXT ( ( #167 ) ) GLOBAL_UNIT_ASSIGNED_CONTEXT ( ( #202, #248, #45 ) ) REPRESENTATION_CONTEXT ( 'NONE', 'WORKASPACE' ) );
#3 = DATE_TIME_ROLE ( 'classification_date' ) ;
#4 = COORDINATED_UNIVERSAL_TIME_OFFSET ( 1, 0, .AHEAD. ) ;
#5 = VERTEX_POINT ( 'NONE', #30 ) ;
#6 = CIRCLE ( 'NONE', #136, 11.00000000000000000 ) ;
#7 = CALENDAR_DATE ( 2022, 7, 7 ) ;
#8 = DIRECTION ( 'NONE',  ( 0.000000000000000000, 0.000000000000000000, 1.000000000000000000 ) ) ;
#9 = CC_DESIGN_PERSON_AND_ORGANIZATION_ASSIGNMENT ( #76, #220, ( #240 ) ) ;
#10 = SHAPE_DEFINITION_REPRESENTATION ( #228, #189 ) ;
#11 = DIRECTION ( 'NONE',  ( 0.000000000000000000, 0.000000000000000000, 1.000000000000000000 ) ) ;
#12 = DIRECTION ( 'NONE',  ( 1.000000000000000000, 0.000000000000000000, 0.000000000000000000 ) ) ;
#13 = CARTESIAN_POINT ( 'NONE',  ( 0.000000000000000000, 0.000000000000000000, 7.000000000000000000 ) ) ;
#14 = DIRECTION ( 'NONE',  ( 0.000000000000000000, 0.000000000000000000, 1.000000000000000000 ) ) ;
#15 = CIRCLE ( 'NONE', #216, 11.00000000000000000 ) ;
#16 = DIRECTION ( 'NONE',  ( -0.000000000000000000, -0.000000000000000000, -1.000000000000000000 ) ) ;
#17 = EDGE_CURVE ( 'NONE', #5, #132, #238, .T. ) ;
#18 = EDGE_CURVE ( 'NONE', #199, #42, #84, .T. ) ;
#19 = APPROVAL_DATE_TIME ( #66, #255 ) ;
#20 = LOCAL_TIME ( 19, 9, 12.00000000000000000, #155 ) ;
#21 = DATE_AND_TIME ( #177, #106 ) ;
#22 = PERSON_AND_ORGANIZATION_ROLE ( 'design_supplier' ) ;
#23 = EDGE_LOOP ( 'NONE', ( #118, #67, #60, #134 ) ) ;
#24 = COORDINATED_UNIVERSAL_TIME_OFFSET ( 1, 0, .AHEAD. ) ;
#25 = CARTESIAN_POINT ( 'NONE',  ( 0.000000000000000000, 0.000000000000000000, 7.000000000000000000 ) ) ;
#26 = MANIFOLD_SOLID_BREP ( 'Pøidat vysunutím3', #183 ) ;
#27 = APPROVAL_STATUS ( 'not_yet_approved' ) ;
#28 = DIRECTION ( 'NONE',  ( 1.000000000000000000, 0.000000000000000000, -0.000000000000000000 ) ) ;
#29 = LINE ( 'NONE', #35, #85 ) ;
#30 = CARTESIAN_POINT ( 'NONE',  ( 11.00000000000000000, 1.347111479062088405E-15, 0.000000000000000000 ) ) ;
#31 = DIRECTION ( 'NONE',  ( -0.000000000000000000, -0.000000000000000000, -1.000000000000000000 ) ) ;
#32 = DIRECTION ( 'NONE',  ( 1.000000000000000000, 0.000000000000000000, 0.000000000000000000 ) ) ;
#33 = CIRCLE ( 'NONE', #37, 7.750000000000000000 ) ;
#34 = LOCAL_TIME ( 19, 9, 12.00000000000000000, #179 ) ;
#35 = CARTESIAN_POINT ( 'NONE',  ( 11.00000000000000000, 1.347111479062088405E-15, 7.000000000000000000 ) ) ;
#36 = CARTESIAN_POINT ( 'NONE',  ( 0.000000000000000000, 0.000000000000000000, 207.0000000000000284 ) ) ;
#37 = AXIS2_PLACEMENT_3D ( 'NONE', #180, #241, #140 ) ;
#38 = DATE_AND_TIME ( #200, #223 ) ;
#39 = EDGE_LOOP ( 'NONE', ( #191, #214 ) ) ;
#40 = ADVANCED_FACE ( 'NONE', ( #81 ), #119, .T. ) ;
#41 = PERSON_AND_ORGANIZATION_ROLE ( 'classification_officer' ) ;
#42 = VERTEX_POINT ( 'NONE', #203 ) ;
#43 = PERSON ( 'NEURÈENÝ', 'NEURÈENÝ', 'NEURÈENÝ', ('NEURÈENÝ'), ('NEURÈENÝ'), ('NEURÈENÝ') ) ;
#44 = CC_DESIGN_APPROVAL ( #253, ( #88 ) ) ;
#45 =( NAMED_UNIT ( * ) SI_UNIT ( $, .STERADIAN. ) SOLID_ANGLE_UNIT ( ) );
#46 = ORIENTED_EDGE ( 'NONE', *, *, #211, .F. ) ;
#47 = ADVANCED_FACE ( 'NONE', ( #55, #78 ), #126, .T. ) ;
#48 = DATE_AND_TIME ( #64, #34 ) ;
#49 = LINE ( 'NONE', #222, #168 ) ;
#50 = DIRECTION ( 'NONE',  ( 0.000000000000000000, 0.000000000000000000, 1.000000000000000000 ) ) ;
#51 = ORGANIZATION ( 'NEURÈENÝ', 'NEURÈENÝ', '' ) ;
#52 = CARTESIAN_POINT ( 'NONE',  ( 0.000000000000000000, 0.000000000000000000, 0.000000000000000000 ) ) ;
#53 = DIRECTION ( 'NONE',  ( 1.000000000000000000, 0.000000000000000000, 0.000000000000000000 ) ) ;
#54 = FACE_OUTER_BOUND ( 'NONE', #162, .T. ) ;
#55 = FACE_BOUND ( 'NONE', #39, .T. ) ;
#56 = ADVANCED_FACE ( 'NONE', ( #178 ), #148, .T. ) ;
#57 = CARTESIAN_POINT ( 'NONE',  ( 0.000000000000000000, 0.000000000000000000, 7.000000000000000000 ) ) ;
#58 = CARTESIAN_POINT ( 'NONE',  ( 0.000000000000000000, 0.000000000000000000, 7.000000000000000000 ) ) ;
#59 = CC_DESIGN_DATE_AND_TIME_ASSIGNMENT ( #21, #213, ( #88 ) ) ;
#60 = ORIENTED_EDGE ( 'NONE', *, *, #211, .T. ) ;
#61 = ORIENTED_EDGE ( 'NONE', *, *, #244, .F. ) ;
#62 = APPROVAL_STATUS ( 'not_yet_approved' ) ;
#63 = CARTESIAN_POINT ( 'NONE',  ( 0.000000000000000000, 0.000000000000000000, 0.000000000000000000 ) ) ;
#64 = CALENDAR_DATE ( 2022, 7, 7 ) ;
#65 = DIRECTION ( 'NONE',  ( 1.000000000000000000, 0.000000000000000000, 0.000000000000000000 ) ) ;
#66 = DATE_AND_TIME ( #7, #20 ) ;
#67 = ORIENTED_EDGE ( 'NONE', *, *, #166, .F. ) ;
#68 = VERTEX_POINT ( 'NONE', #182 ) ;
#69 = DIRECTION ( 'NONE',  ( -1.000000000000000000, 0.000000000000000000, 0.000000000000000000 ) ) ;
#70 = EDGE_LOOP ( 'NONE', ( #114, #145 ) ) ;
#71 = FACE_OUTER_BOUND ( 'NONE', #23, .T. ) ;
#72 = DIRECTION ( 'NONE',  ( -0.000000000000000000, -0.000000000000000000, -1.000000000000000000 ) ) ;
#73 = AXIS2_PLACEMENT_3D ( 'NONE', #25, #96, #100 ) ;
#74 = AXIS2_PLACEMENT_3D ( 'NONE', #219, #158, #28 ) ;
#75 = PERSON_AND_ORGANIZATION_ROLE ( 'creator' ) ;
#76 = PERSON_AND_ORGANIZATION ( #43, #51 ) ;
#77 = PERSON_AND_ORGANIZATION ( #43, #51 ) ;
#78 = FACE_OUTER_BOUND ( 'NONE', #232, .T. ) ;
#79 = DIRECTION ( 'NONE',  ( 0.000000000000000000, 0.000000000000000000, 1.000000000000000000 ) ) ;
#80 = FACE_OUTER_BOUND ( 'NONE', #152, .T. ) ;
#81 = FACE_OUTER_BOUND ( 'NONE', #210, .T. ) ;
#82 = EDGE_CURVE ( 'NONE', #194, #237, #6, .T. ) ;
#83 = DIRECTION ( 'NONE',  ( 0.000000000000000000, 0.000000000000000000, 1.000000000000000000 ) ) ;
#84 = CIRCLE ( 'NONE', #107, 7.750000000000000000 ) ;
#85 = VECTOR ( 'NONE', #16, 1000.000000000000000 ) ;
#86 = DIRECTION ( 'NONE',  ( 1.000000000000000000, 0.000000000000000000, 0.000000000000000000 ) ) ;
#87 = LINE ( 'NONE', #147, #172 ) ;
#88 = PRODUCT_DEFINITION ( 'NEZNÁMÝ', '', #102, #230 ) ;
#89 = ADVANCED_FACE ( 'NONE', ( #80 ), #98, .F. ) ;
#90 = ORIENTED_EDGE ( 'NONE', *, *, #129, .F. ) ;
#91 = EDGE_CURVE ( 'NONE', #42, #199, #33, .T. ) ;
#92 = ORIENTED_EDGE ( 'NONE', *, *, #166, .T. ) ;
#93 = EDGE_CURVE ( 'NONE', #123, #42, #49, .T. ) ;
#94 = APPROVAL_STATUS ( 'not_yet_approved' ) ;
#95 = APPROVAL_ROLE ( '' ) ;
#96 = DIRECTION ( 'NONE',  ( 0.000000000000000000, 0.000000000000000000, 1.000000000000000000 ) ) ;
#97 = APPROVAL_DATE_TIME ( #38, #154 ) ;
#98 = PLANE ( 'NONE',  #74 ) ;
#99 = CYLINDRICAL_SURFACE ( 'NONE', #115, 11.00000000000000000 ) ;
#100 = DIRECTION ( 'NONE',  ( 1.000000000000000000, 0.000000000000000000, -0.000000000000000000 ) ) ;
#101 = LINE ( 'NONE', #104, #157 ) ;
#102 = PRODUCT_DEFINITION_FORMATION_WITH_SPECIFIED_SOURCE ( 'LIBOVOLNÝ', '', #240, .NOT_KNOWN. ) ;
#103 = LOCAL_TIME ( 19, 9, 12.00000000000000000, #4 ) ;
#104 = CARTESIAN_POINT ( 'NONE',  ( 7.750000000000000000, 9.491012693391987787E-16, 207.0000000000000284 ) ) ;
#105 = DIRECTION ( 'NONE',  ( 0.000000000000000000, 0.000000000000000000, 1.000000000000000000 ) ) ;
#106 = LOCAL_TIME ( 19, 9, 12.00000000000000000, #24 ) ;
#107 = AXIS2_PLACEMENT_3D ( 'NONE', #224, #11, #53 ) ;
#108 = APPLICATION_CONTEXT ( 'configuration controlled 3d designs of mechanical parts and assemblies' ) ;
#109 = DIRECTION ( 'NONE',  ( 1.000000000000000000, 0.000000000000000000, 0.000000000000000000 ) ) ;
#110 = ORIENTED_EDGE ( 'NONE', *, *, #17, .T. ) ;
#111 = AXIS2_PLACEMENT_3D ( 'NONE', #201, #124, #250 ) ;
#112 = AXIS2_PLACEMENT_3D ( 'NONE', #58, #128, #69 ) ;
#113 = MECHANICAL_CONTEXT ( 'NONE', #108, 'mechanical' ) ;
#114 = ORIENTED_EDGE ( 'NONE', *, *, #244, .T. ) ;
#115 = AXIS2_PLACEMENT_3D ( 'NONE', #125, #227, #181 ) ;
#116 = CC_DESIGN_PERSON_AND_ORGANIZATION_ASSIGNMENT ( #77, #75, ( #102 ) ) ;
#117 = CALENDAR_DATE ( 2022, 7, 7 ) ;
#118 = ORIENTED_EDGE ( 'NONE', *, *, #209, .F. ) ;
#119 = CYLINDRICAL_SURFACE ( 'NONE', #111, 7.750000000000000000 ) ;
#120 = CIRCLE ( 'NONE', #176, 7.750000000000000000 ) ;
#121 = PERSON_AND_ORGANIZATION ( #43, #51 ) ;
#122 = EDGE_CURVE ( 'NONE', #68, #199, #101, .T. ) ;
#123 = VERTEX_POINT ( 'NONE', #149 ) ;
#124 = DIRECTION ( 'NONE',  ( -0.000000000000000000, -0.000000000000000000, -1.000000000000000000 ) ) ;
#125 = CARTESIAN_POINT ( 'NONE',  ( 0.000000000000000000, 0.000000000000000000, 7.000000000000000000 ) ) ;
#126 = PLANE ( 'NONE',  #73 ) ;
#127 = DIRECTION ( 'NONE',  ( 0.000000000000000000, 0.000000000000000000, 1.000000000000000000 ) ) ;
#128 = DIRECTION ( 'NONE',  ( -0.000000000000000000, -0.000000000000000000, -1.000000000000000000 ) ) ;
#129 = EDGE_CURVE ( 'NONE', #68, #123, #120, .T. ) ;
#130 = ADVANCED_FACE ( 'NONE', ( #54 ), #144, .T. ) ;
#131 = ORIENTED_EDGE ( 'NONE', *, *, #93, .T. ) ;
#132 = VERTEX_POINT ( 'NONE', #245 ) ;
#133 = PERSON_AND_ORGANIZATION_ROLE ( 'creator' ) ;
#134 = ORIENTED_EDGE ( 'NONE', *, *, #171, .T. ) ;
#135 = ADVANCED_FACE ( 'NONE', ( #71 ), #99, .T. ) ;
#136 = AXIS2_PLACEMENT_3D ( 'NONE', #13, #83, #65 ) ;
#137 = APPROVAL_PERSON_ORGANIZATION ( #242, #255, #141 ) ;
#138 = DATE_AND_TIME ( #117, #103 ) ;
#139 = APPLICATION_PROTOCOL_DEFINITION ( 'international standard', 'config_control_design', 1994, #143 ) ;
#140 = DIRECTION ( 'NONE',  ( 1.000000000000000000, 0.000000000000000000, 0.000000000000000000 ) ) ;
#141 = APPROVAL_ROLE ( '' ) ;
#142 = ORIENTED_EDGE ( 'NONE', *, *, #91, .T. ) ;
#143 = APPLICATION_CONTEXT ( 'configuration controlled 3d designs of mechanical parts and assemblies' ) ;
#144 = CYLINDRICAL_SURFACE ( 'NONE', #249, 7.750000000000000000 ) ;
#145 = ORIENTED_EDGE ( 'NONE', *, *, #129, .T. ) ;
#146 = AXIS2_PLACEMENT_3D ( 'NONE', #36, #105, #187 ) ;
#147 = CARTESIAN_POINT ( 'NONE',  ( -11.00000000000000000, 0.000000000000000000, 7.000000000000000000 ) ) ;
#148 = PLANE ( 'NONE',  #215 ) ;
#149 = CARTESIAN_POINT ( 'NONE',  ( -7.750000000000000000, 0.000000000000000000, 207.0000000000000284 ) ) ;
#150 = DIRECTION ( 'NONE',  ( 0.000000000000000000, 0.000000000000000000, 1.000000000000000000 ) ) ;
#151 = APPROVAL_PERSON_ORGANIZATION ( #121, #253, #95 ) ;
#152 = EDGE_LOOP ( 'NONE', ( #246, #1 ) ) ;
#153 = AXIS2_PLACEMENT_3D ( 'NONE', #52, #150, #12 ) ;
#154 = APPROVAL ( #94, 'NEURÈENÝ' ) ;
#155 = COORDINATED_UNIVERSAL_TIME_OFFSET ( 1, 0, .AHEAD. ) ;
#156 = APPROVAL_ROLE ( '' ) ;
#157 = VECTOR ( 'NONE', #205, 1000.000000000000000 ) ;
#158 = DIRECTION ( 'NONE',  ( 0.000000000000000000, 0.000000000000000000, 1.000000000000000000 ) ) ;
#159 = CC_DESIGN_PERSON_AND_ORGANIZATION_ASSIGNMENT ( #239, #41, ( #163 ) ) ;
#160 = ORIENTED_EDGE ( 'NONE', *, *, #18, .T. ) ;
#161 = AXIS2_PLACEMENT_3D ( 'NONE', #63, #79, #109 ) ;
#162 = EDGE_LOOP ( 'NONE', ( #226, #61, #131, #142 ) ) ;
#163 = SECURITY_CLASSIFICATION ( '', '', #174 ) ;
#164 = DIRECTION ( 'NONE',  ( 1.000000000000000000, 0.000000000000000000, 0.000000000000000000 ) ) ;
#165 = DIRECTION ( 'NONE',  ( -0.000000000000000000, -0.000000000000000000, -1.000000000000000000 ) ) ;
#166 = EDGE_CURVE ( 'NONE', #237, #194, #15, .T. ) ;
#167 = UNCERTAINTY_MEASURE_WITH_UNIT (LENGTH_MEASURE( 1.000000000000000082E-05 ), #202, 'distance_accuracy_value', 'NONE');
#168 = VECTOR ( 'NONE', #31, 1000.000000000000000 ) ;
#169 = CC_DESIGN_SECURITY_CLASSIFICATION ( #163, ( #102 ) ) ;
#170 = ORIENTED_EDGE ( 'NONE', *, *, #82, .T. ) ;
#171 = EDGE_CURVE ( 'NONE', #132, #5, #192, .T. ) ;
#172 = VECTOR ( 'NONE', #165, 1000.000000000000000 ) ;
#173 = APPLICATION_PROTOCOL_DEFINITION ( 'international standard', 'config_control_design', 1994, #108 ) ;
#174 = SECURITY_CLASSIFICATION_LEVEL ( 'unclassified' ) ;
#175 = EDGE_LOOP ( 'NONE', ( #235, #217, #110, #46 ) ) ;
#176 = AXIS2_PLACEMENT_3D ( 'NONE', #184, #14, #86 ) ;
#177 = CALENDAR_DATE ( 2022, 7, 7 ) ;
#178 = FACE_OUTER_BOUND ( 'NONE', #70, .T. ) ;
#179 = COORDINATED_UNIVERSAL_TIME_OFFSET ( 1, 0, .AHEAD. ) ;
#180 = CARTESIAN_POINT ( 'NONE',  ( 0.000000000000000000, 0.000000000000000000, 7.000000000000000000 ) ) ;
#181 = DIRECTION ( 'NONE',  ( -1.000000000000000000, 0.000000000000000000, 0.000000000000000000 ) ) ;
#182 = CARTESIAN_POINT ( 'NONE',  ( 7.750000000000000000, 9.491012693391987787E-16, 207.0000000000000284 ) ) ;
#183 = CLOSED_SHELL ( 'NONE', ( #40, #233, #135, #47, #89, #130, #56 ) ) ;
#184 = CARTESIAN_POINT ( 'NONE',  ( 0.000000000000000000, 0.000000000000000000, 207.0000000000000284 ) ) ;
#185 = CC_DESIGN_APPROVAL ( #255, ( #163 ) ) ;
#186 = CARTESIAN_POINT ( 'NONE',  ( 7.750000000000000000, 9.491012693391987787E-16, 7.000000000000000000 ) ) ;
#187 = DIRECTION ( 'NONE',  ( 1.000000000000000000, 0.000000000000000000, 0.000000000000000000 ) ) ;
#188 = APPROVAL_PERSON_ORGANIZATION ( #218, #154, #156 ) ;
#189 = ADVANCED_BREP_SHAPE_REPRESENTATION ( '86cc', ( #26, #161 ), #2 ) ;
#190 = CC_DESIGN_PERSON_AND_ORGANIZATION_ASSIGNMENT ( #236, #22, ( #102 ) ) ;
#191 = ORIENTED_EDGE ( 'NONE', *, *, #91, .F. ) ;
#192 = CIRCLE ( 'NONE', #153, 11.00000000000000000 ) ;
#193 = COORDINATED_UNIVERSAL_TIME_OFFSET ( 1, 0, .AHEAD. ) ;
#194 = VERTEX_POINT ( 'NONE', #207 ) ;
#195 = PRODUCT_RELATED_PRODUCT_CATEGORY ( 'detail', '', ( #240 ) ) ;
#196 = PERSON_AND_ORGANIZATION ( #43, #51 ) ;
#197 = ORIENTED_EDGE ( 'NONE', *, *, #93, .F. ) ;
#198 = APPROVAL_DATE_TIME ( #138, #253 ) ;
#199 = VERTEX_POINT ( 'NONE', #186 ) ;
#200 = CALENDAR_DATE ( 2022, 7, 7 ) ;
#201 = CARTESIAN_POINT ( 'NONE',  ( 0.000000000000000000, 0.000000000000000000, 207.0000000000000284 ) ) ;
#202 =( LENGTH_UNIT ( ) NAMED_UNIT ( * ) SI_UNIT ( .MILLI., .METRE. ) );
#203 = CARTESIAN_POINT ( 'NONE',  ( -7.750000000000000000, 0.000000000000000000, 7.000000000000000000 ) ) ;
#204 = CC_DESIGN_PERSON_AND_ORGANIZATION_ASSIGNMENT ( #196, #133, ( #88 ) ) ;
#205 = DIRECTION ( 'NONE',  ( -0.000000000000000000, -0.000000000000000000, -1.000000000000000000 ) ) ;
#206 = CARTESIAN_POINT ( 'NONE',  ( 0.000000000000000000, 0.000000000000000000, 207.0000000000000284 ) ) ;
#207 = CARTESIAN_POINT ( 'NONE',  ( 11.00000000000000000, 1.347111479062088405E-15, 7.000000000000000000 ) ) ;
#208 = CARTESIAN_POINT ( 'NONE',  ( -11.00000000000000000, 0.000000000000000000, 7.000000000000000000 ) ) ;
#209 = EDGE_CURVE ( 'NONE', #194, #5, #29, .T. ) ;
#210 = EDGE_LOOP ( 'NONE', ( #90, #212, #160, #197 ) ) ;
#211 = EDGE_CURVE ( 'NONE', #237, #132, #87, .T. ) ;
#212 = ORIENTED_EDGE ( 'NONE', *, *, #122, .T. ) ;
#213 = DATE_TIME_ROLE ( 'creation_date' ) ;
#214 = ORIENTED_EDGE ( 'NONE', *, *, #18, .F. ) ;
#215 = AXIS2_PLACEMENT_3D ( 'NONE', #206, #8, #243 ) ;
#216 = AXIS2_PLACEMENT_3D ( 'NONE', #57, #127, #164 ) ;
#217 = ORIENTED_EDGE ( 'NONE', *, *, #209, .T. ) ;
#218 = PERSON_AND_ORGANIZATION ( #43, #51 ) ;
#219 = CARTESIAN_POINT ( 'NONE',  ( 0.000000000000000000, 0.000000000000000000, 0.000000000000000000 ) ) ;
#220 = PERSON_AND_ORGANIZATION_ROLE ( 'design_owner' ) ;
#221 = CARTESIAN_POINT ( 'NONE',  ( 0.000000000000000000, 0.000000000000000000, 0.000000000000000000 ) ) ;
#222 = CARTESIAN_POINT ( 'NONE',  ( -7.750000000000000000, 0.000000000000000000, 207.0000000000000284 ) ) ;
#223 = LOCAL_TIME ( 19, 9, 12.00000000000000000, #193 ) ;
#224 = CARTESIAN_POINT ( 'NONE',  ( 0.000000000000000000, 0.000000000000000000, 7.000000000000000000 ) ) ;
#225 = CARTESIAN_POINT ( 'NONE',  ( 0.000000000000000000, 0.000000000000000000, 207.0000000000000284 ) ) ;
#226 = ORIENTED_EDGE ( 'NONE', *, *, #122, .F. ) ;
#227 = DIRECTION ( 'NONE',  ( -0.000000000000000000, -0.000000000000000000, -1.000000000000000000 ) ) ;
#228 = PRODUCT_DEFINITION_SHAPE ( 'NONE', 'NONE',  #88 ) ;
#229 = CYLINDRICAL_SURFACE ( 'NONE', #112, 11.00000000000000000 ) ;
#230 = DESIGN_CONTEXT ( 'detailed design', #143, 'design' ) ;
#231 = CC_DESIGN_DATE_AND_TIME_ASSIGNMENT ( #48, #3, ( #163 ) ) ;
#232 = EDGE_LOOP ( 'NONE', ( #92, #170 ) ) ;
#233 = ADVANCED_FACE ( 'NONE', ( #252 ), #229, .T. ) ;
#234 = CIRCLE ( 'NONE', #146, 7.750000000000000000 ) ;
#235 = ORIENTED_EDGE ( 'NONE', *, *, #82, .F. ) ;
#236 = PERSON_AND_ORGANIZATION ( #43, #51 ) ;
#237 = VERTEX_POINT ( 'NONE', #208 ) ;
#238 = CIRCLE ( 'NONE', #247, 11.00000000000000000 ) ;
#239 = PERSON_AND_ORGANIZATION ( #43, #51 ) ;
#240 = PRODUCT ( '86cc', '86cc', '', ( #113 ) ) ;
#241 = DIRECTION ( 'NONE',  ( 0.000000000000000000, 0.000000000000000000, 1.000000000000000000 ) ) ;
#242 = PERSON_AND_ORGANIZATION ( #43, #51 ) ;
#243 = DIRECTION ( 'NONE',  ( 1.000000000000000000, 0.000000000000000000, -0.000000000000000000 ) ) ;
#244 = EDGE_CURVE ( 'NONE', #123, #68, #234, .T. ) ;
#245 = CARTESIAN_POINT ( 'NONE',  ( -11.00000000000000000, 0.000000000000000000, 0.000000000000000000 ) ) ;
#246 = ORIENTED_EDGE ( 'NONE', *, *, #171, .F. ) ;
#247 = AXIS2_PLACEMENT_3D ( 'NONE', #221, #50, #32 ) ;
#248 =( NAMED_UNIT ( * ) PLANE_ANGLE_UNIT ( ) SI_UNIT ( $, .RADIAN. ) );
#249 = AXIS2_PLACEMENT_3D ( 'NONE', #225, #72, #251 ) ;
#250 = DIRECTION ( 'NONE',  ( -1.000000000000000000, 0.000000000000000000, 0.000000000000000000 ) ) ;
#251 = DIRECTION ( 'NONE',  ( -1.000000000000000000, 0.000000000000000000, 0.000000000000000000 ) ) ;
#252 = FACE_OUTER_BOUND ( 'NONE', #175, .T. ) ;
#253 = APPROVAL ( #27, 'NEURÈENÝ' ) ;
#254 = CC_DESIGN_APPROVAL ( #154, ( #102 ) ) ;
#255 = APPROVAL ( #62, 'NEURÈENÝ' ) ;
ENDSEC;
END-ISO-10303-21;
