ISO-10303-21;
HEADER;
FILE_DESCRIPTION (( 'STEP AP203' ),
    '1' );
FILE_NAME ('7d76.STEP',
    '2022-07-07T17:51:29',
    ( '' ),
    ( '' ),
    'SwSTEP 2.0',
    'SolidWorks 2019',
    '' );
FILE_SCHEMA (( 'CONFIG_CONTROL_DESIGN' ));
ENDSEC;

DATA;
#1 = EDGE_CURVE ( 'NONE', #8, #90, #31, .T. ) ;
#2 = AXIS2_PLACEMENT_3D ( 'NONE', #101, #215, #192 ) ;
#3 = PERSON ( 'NEURÈENÝ', 'NEURÈENÝ', 'NEURÈENÝ', ('NEURÈENÝ'), ('NEURÈENÝ'), ('NEURÈENÝ') ) ;
#4 = PRODUCT_DEFINITION ( 'NEZNÁMÝ', '', #49, #105 ) ;
#5 = VERTEX_POINT ( 'NONE', #78 ) ;
#6 = APPROVAL_DATE_TIME ( #167, #222 ) ;
#7 = CIRCLE ( 'NONE', #154, 4.000000000000000000 ) ;
#8 = VERTEX_POINT ( 'NONE', #62 ) ;
#9 = PERSON_AND_ORGANIZATION_ROLE ( 'design_owner' ) ;
#10 = DIRECTION ( 'NONE',  ( -0.000000000000000000, -0.000000000000000000, -1.000000000000000000 ) ) ;
#11 = VECTOR ( 'NONE', #213, 1000.000000000000000 ) ;
#12 = LOCAL_TIME ( 19, 51, 29.00000000000000000, #216 ) ;
#13 = VERTEX_POINT ( 'NONE', #40 ) ;
#14 = DIRECTION ( 'NONE',  ( -0.000000000000000000, -0.000000000000000000, -1.000000000000000000 ) ) ;
#15 = EDGE_CURVE ( 'NONE', #223, #93, #19, .T. ) ;
#16 = DIRECTION ( 'NONE',  ( 0.000000000000000000, 0.000000000000000000, 1.000000000000000000 ) ) ;
#17 = EDGE_LOOP ( 'NONE', ( #209, #48, #168, #127 ) ) ;
#18 = DIRECTION ( 'NONE',  ( 1.000000000000000000, 0.000000000000000000, -0.000000000000000000 ) ) ;
#19 = CIRCLE ( 'NONE', #160, 2.000000000000000000 ) ;
#20 = CARTESIAN_POINT ( 'NONE',  ( 0.000000000000000000, 0.000000000000000000, 3.000000000000000000 ) ) ;
#21 = PLANE ( 'NONE',  #198 ) ;
#22 = LOCAL_TIME ( 19, 51, 29.00000000000000000, #146 ) ;
#23 = APPROVAL_ROLE ( '' ) ;
#24 = VERTEX_POINT ( 'NONE', #59 ) ;
#25 = CC_DESIGN_DATE_AND_TIME_ASSIGNMENT ( #206, #27, ( #4 ) ) ;
#26 = CARTESIAN_POINT ( 'NONE',  ( 0.000000000000000000, 0.000000000000000000, 318.0000000000000000 ) ) ;
#27 = DATE_TIME_ROLE ( 'creation_date' ) ;
#28 = ORIENTED_EDGE ( 'NONE', *, *, #234, .F. ) ;
#29 = MECHANICAL_CONTEXT ( 'NONE', #214, 'mechanical' ) ;
#30 = APPROVAL_ROLE ( '' ) ;
#31 = CIRCLE ( 'NONE', #131, 2.000000000000000000 ) ;
#32 =( NAMED_UNIT ( * ) SI_UNIT ( $, .STERADIAN. ) SOLID_ANGLE_UNIT ( ) );
#33 = EDGE_LOOP ( 'NONE', ( #110, #124, #141, #70 ) ) ;
#34 = DIRECTION ( 'NONE',  ( 1.000000000000000000, 0.000000000000000000, 0.000000000000000000 ) ) ;
#35 = CIRCLE ( 'NONE', #42, 4.000000000000000000 ) ;
#36 = CARTESIAN_POINT ( 'NONE',  ( -4.000000000000000000, 0.000000000000000000, 3.000000000000000000 ) ) ;
#37 = CARTESIAN_POINT ( 'NONE',  ( 0.000000000000000000, 0.000000000000000000, 318.0000000000000000 ) ) ;
#38 = CARTESIAN_POINT ( 'NONE',  ( 0.000000000000000000, 0.000000000000000000, 3.000000000000000000 ) ) ;
#39 = DIRECTION ( 'NONE',  ( 0.000000000000000000, 0.000000000000000000, 1.000000000000000000 ) ) ;
#40 = CARTESIAN_POINT ( 'NONE',  ( -4.000000000000000000, 0.000000000000000000, 0.000000000000000000 ) ) ;
#41 = EDGE_CURVE ( 'NONE', #13, #5, #122, .T. ) ;
#42 = AXIS2_PLACEMENT_3D ( 'NONE', #95, #16, #34 ) ;
#43 = CC_DESIGN_APPROVAL ( #222, ( #49 ) ) ;
#44 = EDGE_CURVE ( 'NONE', #93, #223, #54, .T. ) ;
#45 = PERSON_AND_ORGANIZATION ( #3, #64 ) ;
#46 = VECTOR ( 'NONE', #53, 1000.000000000000000 ) ;
#47 = CALENDAR_DATE ( 2022, 7, 7 ) ;
#48 = ORIENTED_EDGE ( 'NONE', *, *, #201, .T. ) ;
#49 = PRODUCT_DEFINITION_FORMATION_WITH_SPECIFIED_SOURCE ( 'LIBOVOLNÝ', '', #239, .NOT_KNOWN. ) ;
#50 = CARTESIAN_POINT ( 'NONE',  ( 4.000000000000000000, 4.898587196589412829E-16, 3.000000000000000000 ) ) ;
#51 = DATE_TIME_ROLE ( 'classification_date' ) ;
#52 = ORIENTED_EDGE ( 'NONE', *, *, #234, .T. ) ;
#53 = DIRECTION ( 'NONE',  ( -0.000000000000000000, -0.000000000000000000, -1.000000000000000000 ) ) ;
#54 = CIRCLE ( 'NONE', #85, 2.000000000000000000 ) ;
#55 = ORIENTED_EDGE ( 'NONE', *, *, #41, .T. ) ;
#56 = DIRECTION ( 'NONE',  ( 1.000000000000000000, 0.000000000000000000, 0.000000000000000000 ) ) ;
#57 = LOCAL_TIME ( 19, 51, 29.00000000000000000, #104 ) ;
#58 = CARTESIAN_POINT ( 'NONE',  ( -2.000000000000000000, 0.000000000000000000, 318.0000000000000000 ) ) ;
#59 = CARTESIAN_POINT ( 'NONE',  ( 4.000000000000000000, 4.898587196589412829E-16, 3.000000000000000000 ) ) ;
#60 = CC_DESIGN_APPROVAL ( #185, ( #139 ) ) ;
#61 = LINE ( 'NONE', #134, #11 ) ;
#62 = CARTESIAN_POINT ( 'NONE',  ( 2.000000000000000000, 2.449293598294706414E-16, 318.0000000000000000 ) ) ;
#63 = CC_DESIGN_PERSON_AND_ORGANIZATION_ASSIGNMENT ( #220, #137, ( #49 ) ) ;
#64 = ORGANIZATION ( 'NEURÈENÝ', 'NEURÈENÝ', '' ) ;
#65 = CC_DESIGN_PERSON_AND_ORGANIZATION_ASSIGNMENT ( #69, #202, ( #4 ) ) ;
#66 = AXIS2_PLACEMENT_3D ( 'NONE', #145, #10, #149 ) ;
#67 = ADVANCED_FACE ( 'NONE', ( #118 ), #21, .F. ) ;
#68 = ORIENTED_EDGE ( 'NONE', *, *, #44, .F. ) ;
#69 = PERSON_AND_ORGANIZATION ( #3, #64 ) ;
#70 = ORIENTED_EDGE ( 'NONE', *, *, #15, .T. ) ;
#71 = CARTESIAN_POINT ( 'NONE',  ( 0.000000000000000000, 0.000000000000000000, 318.0000000000000000 ) ) ;
#72 = APPROVAL_STATUS ( 'not_yet_approved' ) ;
#73 = ADVANCED_FACE ( 'NONE', ( #115 ), #79, .T. ) ;
#74 = APPLICATION_PROTOCOL_DEFINITION ( 'international standard', 'config_control_design', 1994, #243 ) ;
#75 = DIRECTION ( 'NONE',  ( 1.000000000000000000, 0.000000000000000000, -0.000000000000000000 ) ) ;
#76 = LINE ( 'NONE', #36, #46 ) ;
#77 = CARTESIAN_POINT ( 'NONE',  ( 0.000000000000000000, 0.000000000000000000, 3.000000000000000000 ) ) ;
#78 = CARTESIAN_POINT ( 'NONE',  ( 4.000000000000000000, 4.898587196589412829E-16, 0.000000000000000000 ) ) ;
#79 = CYLINDRICAL_SURFACE ( 'NONE', #2, 2.000000000000000000 ) ;
#80 = CC_DESIGN_SECURITY_CLASSIFICATION ( #139, ( #49 ) ) ;
#81 = LINE ( 'NONE', #156, #194 ) ;
#82 = CYLINDRICAL_SURFACE ( 'NONE', #228, 4.000000000000000000 ) ;
#83 = AXIS2_PLACEMENT_3D ( 'NONE', #230, #195, #249 ) ;
#84 = APPROVAL_DATE_TIME ( #92, #231 ) ;
#85 = AXIS2_PLACEMENT_3D ( 'NONE', #117, #173, #250 ) ;
#86 = ADVANCED_BREP_SHAPE_REPRESENTATION ( '7d76', ( #235, #136 ), #181 ) ;
#87 = EDGE_CURVE ( 'NONE', #147, #24, #226, .T. ) ;
#88 = ORIENTED_EDGE ( 'NONE', *, *, #87, .T. ) ;
#89 = CALENDAR_DATE ( 2022, 7, 7 ) ;
#90 = VERTEX_POINT ( 'NONE', #58 ) ;
#91 = CARTESIAN_POINT ( 'NONE',  ( 0.000000000000000000, 0.000000000000000000, 0.000000000000000000 ) ) ;
#92 = DATE_AND_TIME ( #47, #128 ) ;
#93 = VERTEX_POINT ( 'NONE', #175 ) ;
#94 = CARTESIAN_POINT ( 'NONE',  ( -2.000000000000000000, 0.000000000000000000, 3.000000000000000000 ) ) ;
#95 = CARTESIAN_POINT ( 'NONE',  ( 0.000000000000000000, 0.000000000000000000, 3.000000000000000000 ) ) ;
#96 = DIRECTION ( 'NONE',  ( 1.000000000000000000, 0.000000000000000000, 0.000000000000000000 ) ) ;
#97 = APPROVAL_PERSON_ORGANIZATION ( #210, #231, #23 ) ;
#98 = DIRECTION ( 'NONE',  ( 1.000000000000000000, 0.000000000000000000, 0.000000000000000000 ) ) ;
#99 = FACE_OUTER_BOUND ( 'NONE', #204, .T. ) ;
#100 = DIRECTION ( 'NONE',  ( 1.000000000000000000, 0.000000000000000000, -0.000000000000000000 ) ) ;
#101 = CARTESIAN_POINT ( 'NONE',  ( 0.000000000000000000, 0.000000000000000000, 318.0000000000000000 ) ) ;
#102 = CALENDAR_DATE ( 2022, 7, 7 ) ;
#103 = ORIENTED_EDGE ( 'NONE', *, *, #229, .F. ) ;
#104 = COORDINATED_UNIVERSAL_TIME_OFFSET ( 1, 0, .AHEAD. ) ;
#105 = DESIGN_CONTEXT ( 'detailed design', #243, 'design' ) ;
#106 =( NAMED_UNIT ( * ) PLANE_ANGLE_UNIT ( ) SI_UNIT ( $, .RADIAN. ) );
#107 = CALENDAR_DATE ( 2022, 7, 7 ) ;
#108 = ORIENTED_EDGE ( 'NONE', *, *, #229, .T. ) ;
#109 = ORIENTED_EDGE ( 'NONE', *, *, #248, .F. ) ;
#110 = ORIENTED_EDGE ( 'NONE', *, *, #201, .F. ) ;
#111 = VECTOR ( 'NONE', #187, 1000.000000000000000 ) ;
#112 = CC_DESIGN_DATE_AND_TIME_ASSIGNMENT ( #164, #51, ( #139 ) ) ;
#113 = PLANE ( 'NONE',  #157 ) ;
#114 = ADVANCED_FACE ( 'NONE', ( #99 ), #82, .T. ) ;
#115 = FACE_OUTER_BOUND ( 'NONE', #33, .T. ) ;
#116 = DIRECTION ( 'NONE',  ( 0.000000000000000000, 0.000000000000000000, 1.000000000000000000 ) ) ;
#117 = CARTESIAN_POINT ( 'NONE',  ( 0.000000000000000000, 0.000000000000000000, 3.000000000000000000 ) ) ;
#118 = FACE_OUTER_BOUND ( 'NONE', #123, .T. ) ;
#119 = SHAPE_DEFINITION_REPRESENTATION ( #227, #86 ) ;
#120 = PRODUCT_RELATED_PRODUCT_CATEGORY ( 'detail', '', ( #239 ) ) ;
#121 = PERSON_AND_ORGANIZATION ( #3, #64 ) ;
#122 = CIRCLE ( 'NONE', #83, 4.000000000000000000 ) ;
#123 = EDGE_LOOP ( 'NONE', ( #135, #182 ) ) ;
#124 = ORIENTED_EDGE ( 'NONE', *, *, #242, .F. ) ;
#125 = DIRECTION ( 'NONE',  ( 1.000000000000000000, 0.000000000000000000, 0.000000000000000000 ) ) ;
#126 = COORDINATED_UNIVERSAL_TIME_OFFSET ( 1, 0, .AHEAD. ) ;
#127 = ORIENTED_EDGE ( 'NONE', *, *, #159, .F. ) ;
#128 = LOCAL_TIME ( 19, 51, 29.00000000000000000, #126 ) ;
#129 = EDGE_CURVE ( 'NONE', #5, #13, #7, .T. ) ;
#130 =( LENGTH_UNIT ( ) NAMED_UNIT ( * ) SI_UNIT ( .MILLI., .METRE. ) );
#131 = AXIS2_PLACEMENT_3D ( 'NONE', #172, #252, #96 ) ;
#132 = DIRECTION ( 'NONE',  ( 1.000000000000000000, 0.000000000000000000, 0.000000000000000000 ) ) ;
#133 = DIRECTION ( 'NONE',  ( -0.000000000000000000, -0.000000000000000000, -1.000000000000000000 ) ) ;
#134 = CARTESIAN_POINT ( 'NONE',  ( 2.000000000000000000, 2.449293598294706414E-16, 318.0000000000000000 ) ) ;
#135 = ORIENTED_EDGE ( 'NONE', *, *, #41, .F. ) ;
#136 = AXIS2_PLACEMENT_3D ( 'NONE', #91, #166, #125 ) ;
#137 = PERSON_AND_ORGANIZATION_ROLE ( 'design_supplier' ) ;
#138 = AXIS2_PLACEMENT_3D ( 'NONE', #26, #169, #56 ) ;
#139 = SECURITY_CLASSIFICATION ( '', '', #236 ) ;
#140 = APPROVAL_STATUS ( 'not_yet_approved' ) ;
#141 = ORIENTED_EDGE ( 'NONE', *, *, #159, .T. ) ;
#142 = COORDINATED_UNIVERSAL_TIME_OFFSET ( 1, 0, .AHEAD. ) ;
#143 = AXIS2_PLACEMENT_3D ( 'NONE', #20, #39, #176 ) ;
#144 = ADVANCED_FACE ( 'NONE', ( #174 ), #193, .T. ) ;
#145 = CARTESIAN_POINT ( 'NONE',  ( 0.000000000000000000, 0.000000000000000000, 3.000000000000000000 ) ) ;
#146 = COORDINATED_UNIVERSAL_TIME_OFFSET ( 1, 0, .AHEAD. ) ;
#147 = VERTEX_POINT ( 'NONE', #253 ) ;
#148 = APPROVAL_STATUS ( 'not_yet_approved' ) ;
#149 = DIRECTION ( 'NONE',  ( -1.000000000000000000, 0.000000000000000000, 0.000000000000000000 ) ) ;
#150 = AXIS2_PLACEMENT_3D ( 'NONE', #37, #190, #100 ) ;
#151 = CYLINDRICAL_SURFACE ( 'NONE', #66, 4.000000000000000000 ) ;
#152 = DIRECTION ( 'NONE',  ( -1.000000000000000000, 0.000000000000000000, 0.000000000000000000 ) ) ;
#153 = CC_DESIGN_PERSON_AND_ORGANIZATION_ASSIGNMENT ( #247, #9, ( #239 ) ) ;
#154 = AXIS2_PLACEMENT_3D ( 'NONE', #212, #116, #132 ) ;
#155 = DIRECTION ( 'NONE',  ( 0.000000000000000000, 0.000000000000000000, 1.000000000000000000 ) ) ;
#156 = CARTESIAN_POINT ( 'NONE',  ( -2.000000000000000000, 0.000000000000000000, 318.0000000000000000 ) ) ;
#157 = AXIS2_PLACEMENT_3D ( 'NONE', #171, #219, #75 ) ;
#158 = FACE_BOUND ( 'NONE', #170, .T. ) ;
#159 = EDGE_CURVE ( 'NONE', #90, #223, #81, .T. ) ;
#160 = AXIS2_PLACEMENT_3D ( 'NONE', #38, #255, #98 ) ;
#161 = APPROVAL_ROLE ( '' ) ;
#162 = PERSON_AND_ORGANIZATION ( #3, #64 ) ;
#163 = CC_DESIGN_APPROVAL ( #231, ( #4 ) ) ;
#164 = DATE_AND_TIME ( #102, #197 ) ;
#165 = ORIENTED_EDGE ( 'NONE', *, *, #129, .T. ) ;
#166 = DIRECTION ( 'NONE',  ( 0.000000000000000000, 0.000000000000000000, 1.000000000000000000 ) ) ;
#167 = DATE_AND_TIME ( #107, #22 ) ;
#168 = ORIENTED_EDGE ( 'NONE', *, *, #44, .T. ) ;
#169 = DIRECTION ( 'NONE',  ( 0.000000000000000000, 0.000000000000000000, 1.000000000000000000 ) ) ;
#170 = EDGE_LOOP ( 'NONE', ( #238, #68 ) ) ;
#171 = CARTESIAN_POINT ( 'NONE',  ( 0.000000000000000000, 0.000000000000000000, 3.000000000000000000 ) ) ;
#172 = CARTESIAN_POINT ( 'NONE',  ( 0.000000000000000000, 0.000000000000000000, 318.0000000000000000 ) ) ;
#173 = DIRECTION ( 'NONE',  ( 0.000000000000000000, 0.000000000000000000, 1.000000000000000000 ) ) ;
#174 = FACE_OUTER_BOUND ( 'NONE', #225, .T. ) ;
#175 = CARTESIAN_POINT ( 'NONE',  ( 2.000000000000000000, 2.449293598294706414E-16, 3.000000000000000000 ) ) ;
#176 = DIRECTION ( 'NONE',  ( 1.000000000000000000, 0.000000000000000000, 0.000000000000000000 ) ) ;
#177 = CC_DESIGN_PERSON_AND_ORGANIZATION_ASSIGNMENT ( #200, #199, ( #139 ) ) ;
#178 = CLOSED_SHELL ( 'NONE', ( #246, #114, #251, #221, #67, #73, #144 ) ) ;
#179 = ORIENTED_EDGE ( 'NONE', *, *, #248, .T. ) ;
#180 = CALENDAR_DATE ( 2022, 7, 7 ) ;
#181 =( GEOMETRIC_REPRESENTATION_CONTEXT ( 3 ) GLOBAL_UNCERTAINTY_ASSIGNED_CONTEXT ( ( #189 ) ) GLOBAL_UNIT_ASSIGNED_CONTEXT ( ( #130, #106, #32 ) ) REPRESENTATION_CONTEXT ( 'NONE', 'WORKASPACE' ) );
#182 = ORIENTED_EDGE ( 'NONE', *, *, #129, .F. ) ;
#183 = DIRECTION ( 'NONE',  ( -1.000000000000000000, 0.000000000000000000, 0.000000000000000000 ) ) ;
#184 = ORIENTED_EDGE ( 'NONE', *, *, #1, .T. ) ;
#185 = APPROVAL ( #140, 'NEURÈENÝ' ) ;
#186 = ORIENTED_EDGE ( 'NONE', *, *, #87, .F. ) ;
#187 = DIRECTION ( 'NONE',  ( -0.000000000000000000, -0.000000000000000000, -1.000000000000000000 ) ) ;
#188 = FACE_OUTER_BOUND ( 'NONE', #17, .T. ) ;
#189 = UNCERTAINTY_MEASURE_WITH_UNIT (LENGTH_MEASURE( 1.000000000000000082E-05 ), #130, 'distance_accuracy_value', 'NONE');
#190 = DIRECTION ( 'NONE',  ( 0.000000000000000000, 0.000000000000000000, 1.000000000000000000 ) ) ;
#191 = AXIS2_PLACEMENT_3D ( 'NONE', #71, #14, #183 ) ;
#192 = DIRECTION ( 'NONE',  ( -1.000000000000000000, 0.000000000000000000, 0.000000000000000000 ) ) ;
#193 = PLANE ( 'NONE',  #150 ) ;
#194 = VECTOR ( 'NONE', #232, 1000.000000000000000 ) ;
#195 = DIRECTION ( 'NONE',  ( 0.000000000000000000, 0.000000000000000000, 1.000000000000000000 ) ) ;
#196 = APPROVAL_PERSON_ORGANIZATION ( #121, #222, #161 ) ;
#197 = LOCAL_TIME ( 19, 51, 29.00000000000000000, #142 ) ;
#198 = AXIS2_PLACEMENT_3D ( 'NONE', #211, #155, #18 ) ;
#199 = PERSON_AND_ORGANIZATION_ROLE ( 'classification_officer' ) ;
#200 = PERSON_AND_ORGANIZATION ( #3, #64 ) ;
#201 = EDGE_CURVE ( 'NONE', #8, #93, #61, .T. ) ;
#202 = PERSON_AND_ORGANIZATION_ROLE ( 'creator' ) ;
#203 = APPROVAL_PERSON_ORGANIZATION ( #45, #185, #30 ) ;
#204 = EDGE_LOOP ( 'NONE', ( #109, #52, #165, #103 ) ) ;
#205 = APPLICATION_PROTOCOL_DEFINITION ( 'international standard', 'config_control_design', 1994, #214 ) ;
#206 = DATE_AND_TIME ( #180, #57 ) ;
#207 = EDGE_LOOP ( 'NONE', ( #88, #179 ) ) ;
#208 = CC_DESIGN_PERSON_AND_ORGANIZATION_ASSIGNMENT ( #162, #241, ( #49 ) ) ;
#209 = ORIENTED_EDGE ( 'NONE', *, *, #1, .F. ) ;
#210 = PERSON_AND_ORGANIZATION ( #3, #64 ) ;
#211 = CARTESIAN_POINT ( 'NONE',  ( 0.000000000000000000, 0.000000000000000000, 0.000000000000000000 ) ) ;
#212 = CARTESIAN_POINT ( 'NONE',  ( 0.000000000000000000, 0.000000000000000000, 0.000000000000000000 ) ) ;
#213 = DIRECTION ( 'NONE',  ( -0.000000000000000000, -0.000000000000000000, -1.000000000000000000 ) ) ;
#214 = APPLICATION_CONTEXT ( 'configuration controlled 3d designs of mechanical parts and assemblies' ) ;
#215 = DIRECTION ( 'NONE',  ( -0.000000000000000000, -0.000000000000000000, -1.000000000000000000 ) ) ;
#216 = COORDINATED_UNIVERSAL_TIME_OFFSET ( 1, 0, .AHEAD. ) ;
#217 = DATE_AND_TIME ( #89, #12 ) ;
#218 = APPROVAL_DATE_TIME ( #217, #185 ) ;
#219 = DIRECTION ( 'NONE',  ( 0.000000000000000000, 0.000000000000000000, 1.000000000000000000 ) ) ;
#220 = PERSON_AND_ORGANIZATION ( #3, #64 ) ;
#221 = ADVANCED_FACE ( 'NONE', ( #158, #233 ), #113, .T. ) ;
#222 = APPROVAL ( #72, 'NEURÈENÝ' ) ;
#223 = VERTEX_POINT ( 'NONE', #94 ) ;
#224 = FACE_OUTER_BOUND ( 'NONE', #244, .T. ) ;
#225 = EDGE_LOOP ( 'NONE', ( #237, #184 ) ) ;
#226 = CIRCLE ( 'NONE', #143, 4.000000000000000000 ) ;
#227 = PRODUCT_DEFINITION_SHAPE ( 'NONE', 'NONE',  #4 ) ;
#228 = AXIS2_PLACEMENT_3D ( 'NONE', #77, #133, #152 ) ;
#229 = EDGE_CURVE ( 'NONE', #147, #13, #76, .T. ) ;
#230 = CARTESIAN_POINT ( 'NONE',  ( 0.000000000000000000, 0.000000000000000000, 0.000000000000000000 ) ) ;
#231 = APPROVAL ( #148, 'NEURÈENÝ' ) ;
#232 = DIRECTION ( 'NONE',  ( -0.000000000000000000, -0.000000000000000000, -1.000000000000000000 ) ) ;
#233 = FACE_OUTER_BOUND ( 'NONE', #207, .T. ) ;
#234 = EDGE_CURVE ( 'NONE', #24, #5, #245, .T. ) ;
#235 = MANIFOLD_SOLID_BREP ( 'Pøidat vysunutím3', #178 ) ;
#236 = SECURITY_CLASSIFICATION_LEVEL ( 'unclassified' ) ;
#237 = ORIENTED_EDGE ( 'NONE', *, *, #242, .T. ) ;
#238 = ORIENTED_EDGE ( 'NONE', *, *, #15, .F. ) ;
#239 = PRODUCT ( '7d76', '7d76', '', ( #29 ) ) ;
#240 = CYLINDRICAL_SURFACE ( 'NONE', #191, 2.000000000000000000 ) ;
#241 = PERSON_AND_ORGANIZATION_ROLE ( 'creator' ) ;
#242 = EDGE_CURVE ( 'NONE', #90, #8, #254, .T. ) ;
#243 = APPLICATION_CONTEXT ( 'configuration controlled 3d designs of mechanical parts and assemblies' ) ;
#244 = EDGE_LOOP ( 'NONE', ( #28, #186, #108, #55 ) ) ;
#245 = LINE ( 'NONE', #50, #111 ) ;
#246 = ADVANCED_FACE ( 'NONE', ( #188 ), #240, .T. ) ;
#247 = PERSON_AND_ORGANIZATION ( #3, #64 ) ;
#248 = EDGE_CURVE ( 'NONE', #24, #147, #35, .T. ) ;
#249 = DIRECTION ( 'NONE',  ( 1.000000000000000000, 0.000000000000000000, 0.000000000000000000 ) ) ;
#250 = DIRECTION ( 'NONE',  ( 1.000000000000000000, 0.000000000000000000, 0.000000000000000000 ) ) ;
#251 = ADVANCED_FACE ( 'NONE', ( #224 ), #151, .T. ) ;
#252 = DIRECTION ( 'NONE',  ( 0.000000000000000000, 0.000000000000000000, 1.000000000000000000 ) ) ;
#253 = CARTESIAN_POINT ( 'NONE',  ( -4.000000000000000000, 0.000000000000000000, 3.000000000000000000 ) ) ;
#254 = CIRCLE ( 'NONE', #138, 2.000000000000000000 ) ;
#255 = DIRECTION ( 'NONE',  ( 0.000000000000000000, 0.000000000000000000, 1.000000000000000000 ) ) ;
ENDSEC;
END-ISO-10303-21;
