ISO-10303-21;
HEADER;
FILE_DESCRIPTION (( 'STEP AP203' ),
    '1' );
FILE_NAME ('aead.STEP',
    '2022-07-07T17:46:19',
    ( '' ),
    ( '' ),
    'SwSTEP 2.0',
    'SolidWorks 2019',
    '' );
FILE_SCHEMA (( 'CONFIG_CONTROL_DESIGN' ));
ENDSEC;

DATA;
#1 = ORIENTED_EDGE ( 'NONE', *, *, #79, .F. ) ;
#2 = AXIS2_PLACEMENT_3D ( 'NONE', #105, #227, #15 ) ;
#3 = ORIENTED_EDGE ( 'NONE', *, *, #79, .T. ) ;
#4 = ADVANCED_FACE ( 'NONE', ( #46 ), #124, .T. ) ;
#5 = ORIENTED_EDGE ( 'NONE', *, *, #35, .T. ) ;
#6 = APPROVAL_STATUS ( 'not_yet_approved' ) ;
#7 = CC_DESIGN_APPROVAL ( #173, ( #247 ) ) ;
#8 = PERSON_AND_ORGANIZATION ( #162, #236 ) ;
#9 = CARTESIAN_POINT ( 'NONE',  ( 0.000000000000000000, 0.000000000000000000, 0.000000000000000000 ) ) ;
#10 = DATE_AND_TIME ( #26, #120 ) ;
#11 = LINE ( 'NONE', #200, #220 ) ;
#12 = COORDINATED_UNIVERSAL_TIME_OFFSET ( 1, 0, .AHEAD. ) ;
#13 = CLOSED_SHELL ( 'NONE', ( #56, #4, #55, #117, #238, #137, #76 ) ) ;
#14 = ORIENTED_EDGE ( 'NONE', *, *, #235, .T. ) ;
#15 = DIRECTION ( 'NONE',  ( -1.000000000000000000, 0.000000000000000000, 0.000000000000000000 ) ) ;
#16 = MECHANICAL_CONTEXT ( 'NONE', #154, 'mechanical' ) ;
#17 = PLANE ( 'NONE',  #44 ) ;
#18 = DIRECTION ( 'NONE',  ( 0.000000000000000000, 0.000000000000000000, 1.000000000000000000 ) ) ;
#19 = APPROVAL ( #103, 'NEURÈENÝ' ) ;
#20 = DIRECTION ( 'NONE',  ( 1.000000000000000000, 0.000000000000000000, 0.000000000000000000 ) ) ;
#21 = ORIENTED_EDGE ( 'NONE', *, *, #195, .F. ) ;
#22 = LINE ( 'NONE', #204, #240 ) ;
#23 = VECTOR ( 'NONE', #33, 1000.000000000000000 ) ;
#24 = PRODUCT_DEFINITION_FORMATION_WITH_SPECIFIED_SOURCE ( 'LIBOVOLNÝ', '', #175, .NOT_KNOWN. ) ;
#25 = DIRECTION ( 'NONE',  ( 1.000000000000000000, 0.000000000000000000, 0.000000000000000000 ) ) ;
#26 = CALENDAR_DATE ( 2022, 7, 7 ) ;
#27 = CARTESIAN_POINT ( 'NONE',  ( 0.000000000000000000, 0.000000000000000000, 3.000000000000000000 ) ) ;
#28 = FACE_OUTER_BOUND ( 'NONE', #51, .T. ) ;
#29 = UNCERTAINTY_MEASURE_WITH_UNIT (LENGTH_MEASURE( 1.000000000000000082E-05 ), #182, 'distance_accuracy_value', 'NONE');
#30 = CYLINDRICAL_SURFACE ( 'NONE', #2, 2.600000000000000089 ) ;
#31 = APPROVAL_DATE_TIME ( #139, #147 ) ;
#32 = ORIENTED_EDGE ( 'NONE', *, *, #99, .T. ) ;
#33 = DIRECTION ( 'NONE',  ( -0.000000000000000000, -0.000000000000000000, -1.000000000000000000 ) ) ;
#34 = ORIENTED_EDGE ( 'NONE', *, *, #112, .T. ) ;
#35 = EDGE_CURVE ( 'NONE', #114, #190, #199, .T. ) ;
#36 = PERSON_AND_ORGANIZATION_ROLE ( 'classification_officer' ) ;
#37 = VERTEX_POINT ( 'NONE', #192 ) ;
#38 = EDGE_CURVE ( 'NONE', #140, #114, #22, .T. ) ;
#39 = APPROVAL_ROLE ( '' ) ;
#40 = CIRCLE ( 'NONE', #85, 5.000000000000000000 ) ;
#41 = DATE_TIME_ROLE ( 'classification_date' ) ;
#42 = CC_DESIGN_DATE_AND_TIME_ASSIGNMENT ( #10, #41, ( #247 ) ) ;
#43 = CARTESIAN_POINT ( 'NONE',  ( -5.000000000000000000, 0.000000000000000000, 3.000000000000000000 ) ) ;
#44 = AXIS2_PLACEMENT_3D ( 'NONE', #89, #18, #224 ) ;
#45 = CARTESIAN_POINT ( 'NONE',  ( 0.000000000000000000, 0.000000000000000000, 3.000000000000000000 ) ) ;
#46 = FACE_OUTER_BOUND ( 'NONE', #209, .T. ) ;
#47 = DIRECTION ( 'NONE',  ( 1.000000000000000000, 0.000000000000000000, 0.000000000000000000 ) ) ;
#48 = DATE_TIME_ROLE ( 'creation_date' ) ;
#49 = FACE_OUTER_BOUND ( 'NONE', #171, .T. ) ;
#50 = CARTESIAN_POINT ( 'NONE',  ( 0.000000000000000000, 0.000000000000000000, 3.000000000000000000 ) ) ;
#51 = EDGE_LOOP ( 'NONE', ( #223, #130, #34, #252 ) ) ;
#52 = PERSON_AND_ORGANIZATION ( #162, #236 ) ;
#53 = CARTESIAN_POINT ( 'NONE',  ( 0.000000000000000000, 0.000000000000000000, 3.000000000000000000 ) ) ;
#54 =( GEOMETRIC_REPRESENTATION_CONTEXT ( 3 ) GLOBAL_UNCERTAINTY_ASSIGNED_CONTEXT ( ( #29 ) ) GLOBAL_UNIT_ASSIGNED_CONTEXT ( ( #182, #70, #245 ) ) REPRESENTATION_CONTEXT ( 'NONE', 'WORKASPACE' ) );
#55 = ADVANCED_FACE ( 'NONE', ( #28 ), #172, .T. ) ;
#56 = ADVANCED_FACE ( 'NONE', ( #108 ), #187, .T. ) ;
#57 = EDGE_LOOP ( 'NONE', ( #215, #229, #80, #5 ) ) ;
#58 = DESIGN_CONTEXT ( 'detailed design', #255, 'design' ) ;
#59 = AXIS2_PLACEMENT_3D ( 'NONE', #104, #183, #88 ) ;
#60 = SHAPE_DEFINITION_REPRESENTATION ( #239, #128 ) ;
#61 = PLANE ( 'NONE',  #212 ) ;
#62 = DIRECTION ( 'NONE',  ( -0.000000000000000000, -0.000000000000000000, -1.000000000000000000 ) ) ;
#63 = CIRCLE ( 'NONE', #156, 5.000000000000000000 ) ;
#64 = APPLICATION_PROTOCOL_DEFINITION ( 'international standard', 'config_control_design', 1994, #255 ) ;
#65 = VERTEX_POINT ( 'NONE', #226 ) ;
#66 = CARTESIAN_POINT ( 'NONE',  ( 0.000000000000000000, 0.000000000000000000, 0.000000000000000000 ) ) ;
#67 = COORDINATED_UNIVERSAL_TIME_OFFSET ( 1, 0, .AHEAD. ) ;
#68 = DIRECTION ( 'NONE',  ( -0.000000000000000000, -0.000000000000000000, -1.000000000000000000 ) ) ;
#69 = CARTESIAN_POINT ( 'NONE',  ( -2.600000000000000089, 0.000000000000000000, 103.0000000000000142 ) ) ;
#70 =( NAMED_UNIT ( * ) PLANE_ANGLE_UNIT ( ) SI_UNIT ( $, .RADIAN. ) );
#71 = ORIENTED_EDGE ( 'NONE', *, *, #38, .F. ) ;
#72 = DIRECTION ( 'NONE',  ( 0.000000000000000000, 0.000000000000000000, 1.000000000000000000 ) ) ;
#73 = DATE_AND_TIME ( #129, #197 ) ;
#74 = ORIENTED_EDGE ( 'NONE', *, *, #111, .T. ) ;
#75 = EDGE_LOOP ( 'NONE', ( #32, #14 ) ) ;
#76 = ADVANCED_FACE ( 'NONE', ( #49 ), #17, .T. ) ;
#77 = EDGE_LOOP ( 'NONE', ( #110, #246, #90, #71 ) ) ;
#78 = CC_DESIGN_APPROVAL ( #147, ( #24 ) ) ;
#79 = EDGE_CURVE ( 'NONE', #37, #65, #115, .T. ) ;
#80 = ORIENTED_EDGE ( 'NONE', *, *, #38, .T. ) ;
#81 = AXIS2_PLACEMENT_3D ( 'NONE', #45, #121, #25 ) ;
#82 = DIRECTION ( 'NONE',  ( 0.000000000000000000, 0.000000000000000000, 1.000000000000000000 ) ) ;
#83 = DATE_AND_TIME ( #228, #86 ) ;
#84 = CARTESIAN_POINT ( 'NONE',  ( 0.000000000000000000, 0.000000000000000000, 0.000000000000000000 ) ) ;
#85 = AXIS2_PLACEMENT_3D ( 'NONE', #186, #109, #125 ) ;
#86 = LOCAL_TIME ( 19, 46, 19.00000000000000000, #170 ) ;
#87 = VECTOR ( 'NONE', #62, 1000.000000000000000 ) ;
#88 = DIRECTION ( 'NONE',  ( -1.000000000000000000, 0.000000000000000000, 0.000000000000000000 ) ) ;
#89 = CARTESIAN_POINT ( 'NONE',  ( 0.000000000000000000, 0.000000000000000000, 103.0000000000000142 ) ) ;
#90 = ORIENTED_EDGE ( 'NONE', *, *, #159, .T. ) ;
#91 = CARTESIAN_POINT ( 'NONE',  ( -2.600000000000000089, 0.000000000000000000, 3.000000000000000000 ) ) ;
#92 = PERSON_AND_ORGANIZATION ( #162, #236 ) ;
#93 = DIRECTION ( 'NONE',  ( -0.000000000000000000, -0.000000000000000000, -1.000000000000000000 ) ) ;
#94 = EDGE_CURVE ( 'NONE', #165, #37, #11, .T. ) ;
#95 = DIRECTION ( 'NONE',  ( -0.000000000000000000, -0.000000000000000000, -1.000000000000000000 ) ) ;
#96 = CC_DESIGN_APPROVAL ( #19, ( #123 ) ) ;
#97 = ORIENTED_EDGE ( 'NONE', *, *, #112, .F. ) ;
#98 = APPROVAL_PERSON_ORGANIZATION ( #206, #147, #151 ) ;
#99 = EDGE_CURVE ( 'NONE', #153, #165, #40, .T. ) ;
#100 = DIRECTION ( 'NONE',  ( 1.000000000000000000, 0.000000000000000000, 0.000000000000000000 ) ) ;
#101 = APPROVAL_ROLE ( '' ) ;
#102 = FACE_OUTER_BOUND ( 'NONE', #152, .T. ) ;
#103 = APPROVAL_STATUS ( 'not_yet_approved' ) ;
#104 = CARTESIAN_POINT ( 'NONE',  ( 0.000000000000000000, 0.000000000000000000, 3.000000000000000000 ) ) ;
#105 = CARTESIAN_POINT ( 'NONE',  ( 0.000000000000000000, 0.000000000000000000, 103.0000000000000142 ) ) ;
#106 = APPROVAL_PERSON_ORGANIZATION ( #8, #173, #39 ) ;
#107 = PERSON_AND_ORGANIZATION_ROLE ( 'creator' ) ;
#108 = FACE_OUTER_BOUND ( 'NONE', #77, .T. ) ;
#109 = DIRECTION ( 'NONE',  ( 0.000000000000000000, 0.000000000000000000, 1.000000000000000000 ) ) ;
#110 = ORIENTED_EDGE ( 'NONE', *, *, #158, .F. ) ;
#111 = EDGE_CURVE ( 'NONE', #140, #157, #176, .T. ) ;
#112 = EDGE_CURVE ( 'NONE', #153, #65, #188, .T. ) ;
#113 = DIRECTION ( 'NONE',  ( 1.000000000000000000, 0.000000000000000000, 0.000000000000000000 ) ) ;
#114 = VERTEX_POINT ( 'NONE', #91 ) ;
#115 = CIRCLE ( 'NONE', #194, 5.000000000000000000 ) ;
#116 = LOCAL_TIME ( 19, 46, 19.00000000000000000, #67 ) ;
#117 = ADVANCED_FACE ( 'NONE', ( #166, #205 ), #181, .T. ) ;
#118 = COORDINATED_UNIVERSAL_TIME_OFFSET ( 1, 0, .AHEAD. ) ;
#119 = CC_DESIGN_PERSON_AND_ORGANIZATION_ASSIGNMENT ( #52, #132, ( #24 ) ) ;
#120 = LOCAL_TIME ( 19, 46, 19.00000000000000000, #145 ) ;
#121 = DIRECTION ( 'NONE',  ( 0.000000000000000000, 0.000000000000000000, 1.000000000000000000 ) ) ;
#122 = CARTESIAN_POINT ( 'NONE',  ( 2.600000000000000089, 3.184081677783118191E-16, 3.000000000000000000 ) ) ;
#123 = PRODUCT_DEFINITION ( 'NEZNÁMÝ', '', #24, #58 ) ;
#124 = CYLINDRICAL_SURFACE ( 'NONE', #193, 5.000000000000000000 ) ;
#125 = DIRECTION ( 'NONE',  ( 1.000000000000000000, 0.000000000000000000, 0.000000000000000000 ) ) ;
#126 = ORIENTED_EDGE ( 'NONE', *, *, #159, .F. ) ;
#127 = CARTESIAN_POINT ( 'NONE',  ( 2.600000000000000089, 3.184081677783118191E-16, 103.0000000000000142 ) ) ;
#128 = ADVANCED_BREP_SHAPE_REPRESENTATION ( 'aead', ( #222, #213 ), #54 ) ;
#129 = CALENDAR_DATE ( 2022, 7, 7 ) ;
#130 = ORIENTED_EDGE ( 'NONE', *, *, #99, .F. ) ;
#131 = CC_DESIGN_PERSON_AND_ORGANIZATION_ASSIGNMENT ( #167, #232, ( #24 ) ) ;
#132 = PERSON_AND_ORGANIZATION_ROLE ( 'design_supplier' ) ;
#133 = CARTESIAN_POINT ( 'NONE',  ( 0.000000000000000000, 0.000000000000000000, 3.000000000000000000 ) ) ;
#134 = APPROVAL_PERSON_ORGANIZATION ( #92, #19, #101 ) ;
#135 = CIRCLE ( 'NONE', #161, 2.600000000000000089 ) ;
#136 = DIRECTION ( 'NONE',  ( -0.000000000000000000, -0.000000000000000000, -1.000000000000000000 ) ) ;
#137 = ADVANCED_FACE ( 'NONE', ( #250 ), #30, .T. ) ;
#138 = DIRECTION ( 'NONE',  ( 0.000000000000000000, 0.000000000000000000, 1.000000000000000000 ) ) ;
#139 = DATE_AND_TIME ( #191, #116 ) ;
#140 = VERTEX_POINT ( 'NONE', #69 ) ;
#141 = CARTESIAN_POINT ( 'NONE',  ( 0.000000000000000000, 0.000000000000000000, 103.0000000000000142 ) ) ;
#142 = PERSON_AND_ORGANIZATION ( #162, #236 ) ;
#143 = DIRECTION ( 'NONE',  ( -1.000000000000000000, 0.000000000000000000, 0.000000000000000000 ) ) ;
#144 = DIRECTION ( 'NONE',  ( 1.000000000000000000, 0.000000000000000000, -0.000000000000000000 ) ) ;
#145 = COORDINATED_UNIVERSAL_TIME_OFFSET ( 1, 0, .AHEAD. ) ;
#146 = CC_DESIGN_PERSON_AND_ORGANIZATION_ASSIGNMENT ( #210, #36, ( #247 ) ) ;
#147 = APPROVAL ( #164, 'NEURÈENÝ' ) ;
#148 = ORIENTED_EDGE ( 'NONE', *, *, #94, .T. ) ;
#149 = DIRECTION ( 'NONE',  ( 1.000000000000000000, 0.000000000000000000, 0.000000000000000000 ) ) ;
#150 = CC_DESIGN_SECURITY_CLASSIFICATION ( #247, ( #24 ) ) ;
#151 = APPROVAL_ROLE ( '' ) ;
#152 = EDGE_LOOP ( 'NONE', ( #21, #1 ) ) ;
#153 = VERTEX_POINT ( 'NONE', #43 ) ;
#154 = APPLICATION_CONTEXT ( 'configuration controlled 3d designs of mechanical parts and assemblies' ) ;
#155 = AXIS2_PLACEMENT_3D ( 'NONE', #53, #211, #113 ) ;
#156 = AXIS2_PLACEMENT_3D ( 'NONE', #27, #138, #100 ) ;
#157 = VERTEX_POINT ( 'NONE', #127 ) ;
#158 = EDGE_CURVE ( 'NONE', #157, #140, #135, .T. ) ;
#159 = EDGE_CURVE ( 'NONE', #190, #114, #216, .T. ) ;
#160 = DIRECTION ( 'NONE',  ( 1.000000000000000000, 0.000000000000000000, -0.000000000000000000 ) ) ;
#161 = AXIS2_PLACEMENT_3D ( 'NONE', #208, #169, #149 ) ;
#162 = PERSON ( 'NEURÈENÝ', 'NEURÈENÝ', 'NEURÈENÝ', ('NEURÈENÝ'), ('NEURÈENÝ'), ('NEURÈENÝ') ) ;
#163 = CARTESIAN_POINT ( 'NONE',  ( 2.600000000000000089, 3.184081677783118191E-16, 103.0000000000000142 ) ) ;
#164 = APPROVAL_STATUS ( 'not_yet_approved' ) ;
#165 = VERTEX_POINT ( 'NONE', #231 ) ;
#166 = FACE_BOUND ( 'NONE', #207, .T. ) ;
#167 = PERSON_AND_ORGANIZATION ( #162, #236 ) ;
#168 = ORIENTED_EDGE ( 'NONE', *, *, #235, .F. ) ;
#169 = DIRECTION ( 'NONE',  ( 0.000000000000000000, 0.000000000000000000, 1.000000000000000000 ) ) ;
#170 = COORDINATED_UNIVERSAL_TIME_OFFSET ( 1, 0, .AHEAD. ) ;
#171 = EDGE_LOOP ( 'NONE', ( #74, #233 ) ) ;
#172 = CYLINDRICAL_SURFACE ( 'NONE', #59, 5.000000000000000000 ) ;
#173 = APPROVAL ( #6, 'NEURÈENÝ' ) ;
#174 = LOCAL_TIME ( 19, 46, 19.00000000000000000, #118 ) ;
#175 = PRODUCT ( 'aead', 'aead', '', ( #16 ) ) ;
#176 = CIRCLE ( 'NONE', #184, 2.600000000000000089 ) ;
#177 = CIRCLE ( 'NONE', #185, 5.000000000000000000 ) ;
#178 = CC_DESIGN_DATE_AND_TIME_ASSIGNMENT ( #73, #48, ( #123 ) ) ;
#179 = CARTESIAN_POINT ( 'NONE',  ( -5.000000000000000000, 0.000000000000000000, 3.000000000000000000 ) ) ;
#180 = PERSON_AND_ORGANIZATION ( #162, #236 ) ;
#181 = PLANE ( 'NONE',  #196 ) ;
#182 =( LENGTH_UNIT ( ) NAMED_UNIT ( * ) SI_UNIT ( .MILLI., .METRE. ) );
#183 = DIRECTION ( 'NONE',  ( -0.000000000000000000, -0.000000000000000000, -1.000000000000000000 ) ) ;
#184 = AXIS2_PLACEMENT_3D ( 'NONE', #141, #202, #248 ) ;
#185 = AXIS2_PLACEMENT_3D ( 'NONE', #84, #253, #242 ) ;
#186 = CARTESIAN_POINT ( 'NONE',  ( 0.000000000000000000, 0.000000000000000000, 3.000000000000000000 ) ) ;
#187 = CYLINDRICAL_SURFACE ( 'NONE', #230, 2.600000000000000089 ) ;
#188 = LINE ( 'NONE', #179, #23 ) ;
#189 = PERSON_AND_ORGANIZATION_ROLE ( 'design_owner' ) ;
#190 = VERTEX_POINT ( 'NONE', #122 ) ;
#191 = CALENDAR_DATE ( 2022, 7, 7 ) ;
#192 = CARTESIAN_POINT ( 'NONE',  ( 5.000000000000000000, 6.123233995736766282E-16, 0.000000000000000000 ) ) ;
#193 = AXIS2_PLACEMENT_3D ( 'NONE', #133, #93, #234 ) ;
#194 = AXIS2_PLACEMENT_3D ( 'NONE', #66, #72, #47 ) ;
#195 = EDGE_CURVE ( 'NONE', #65, #37, #177, .T. ) ;
#196 = AXIS2_PLACEMENT_3D ( 'NONE', #50, #219, #144 ) ;
#197 = LOCAL_TIME ( 19, 46, 19.00000000000000000, #12 ) ;
#198 = DATE_AND_TIME ( #217, #174 ) ;
#199 = CIRCLE ( 'NONE', #155, 2.600000000000000089 ) ;
#200 = CARTESIAN_POINT ( 'NONE',  ( 5.000000000000000000, 6.123233995736766282E-16, 3.000000000000000000 ) ) ;
#201 = APPLICATION_PROTOCOL_DEFINITION ( 'international standard', 'config_control_design', 1994, #154 ) ;
#202 = DIRECTION ( 'NONE',  ( 0.000000000000000000, 0.000000000000000000, 1.000000000000000000 ) ) ;
#203 = DIRECTION ( 'NONE',  ( 0.000000000000000000, 0.000000000000000000, 1.000000000000000000 ) ) ;
#204 = CARTESIAN_POINT ( 'NONE',  ( -2.600000000000000089, 0.000000000000000000, 103.0000000000000142 ) ) ;
#205 = FACE_OUTER_BOUND ( 'NONE', #75, .T. ) ;
#206 = PERSON_AND_ORGANIZATION ( #162, #236 ) ;
#207 = EDGE_LOOP ( 'NONE', ( #237, #126 ) ) ;
#208 = CARTESIAN_POINT ( 'NONE',  ( 0.000000000000000000, 0.000000000000000000, 103.0000000000000142 ) ) ;
#209 = EDGE_LOOP ( 'NONE', ( #168, #148, #3, #97 ) ) ;
#210 = PERSON_AND_ORGANIZATION ( #162, #236 ) ;
#211 = DIRECTION ( 'NONE',  ( 0.000000000000000000, 0.000000000000000000, 1.000000000000000000 ) ) ;
#212 = AXIS2_PLACEMENT_3D ( 'NONE', #9, #82, #160 ) ;
#213 = AXIS2_PLACEMENT_3D ( 'NONE', #225, #203, #20 ) ;
#214 = PRODUCT_RELATED_PRODUCT_CATEGORY ( 'detail', '', ( #175 ) ) ;
#215 = ORIENTED_EDGE ( 'NONE', *, *, #243, .F. ) ;
#216 = CIRCLE ( 'NONE', #81, 2.600000000000000089 ) ;
#217 = CALENDAR_DATE ( 2022, 7, 7 ) ;
#218 = APPROVAL_DATE_TIME ( #198, #173 ) ;
#219 = DIRECTION ( 'NONE',  ( 0.000000000000000000, 0.000000000000000000, 1.000000000000000000 ) ) ;
#220 = VECTOR ( 'NONE', #136, 1000.000000000000000 ) ;
#221 = CC_DESIGN_PERSON_AND_ORGANIZATION_ASSIGNMENT ( #180, #107, ( #123 ) ) ;
#222 = MANIFOLD_SOLID_BREP ( 'Pøidat vysunutím3', #13 ) ;
#223 = ORIENTED_EDGE ( 'NONE', *, *, #94, .F. ) ;
#224 = DIRECTION ( 'NONE',  ( 1.000000000000000000, 0.000000000000000000, -0.000000000000000000 ) ) ;
#225 = CARTESIAN_POINT ( 'NONE',  ( 0.000000000000000000, 0.000000000000000000, 0.000000000000000000 ) ) ;
#226 = CARTESIAN_POINT ( 'NONE',  ( -5.000000000000000000, 0.000000000000000000, 0.000000000000000000 ) ) ;
#227 = DIRECTION ( 'NONE',  ( -0.000000000000000000, -0.000000000000000000, -1.000000000000000000 ) ) ;
#228 = CALENDAR_DATE ( 2022, 7, 7 ) ;
#229 = ORIENTED_EDGE ( 'NONE', *, *, #111, .F. ) ;
#230 = AXIS2_PLACEMENT_3D ( 'NONE', #249, #68, #143 ) ;
#231 = CARTESIAN_POINT ( 'NONE',  ( 5.000000000000000000, 6.123233995736766282E-16, 3.000000000000000000 ) ) ;
#232 = PERSON_AND_ORGANIZATION_ROLE ( 'creator' ) ;
#233 = ORIENTED_EDGE ( 'NONE', *, *, #158, .T. ) ;
#234 = DIRECTION ( 'NONE',  ( -1.000000000000000000, 0.000000000000000000, 0.000000000000000000 ) ) ;
#235 = EDGE_CURVE ( 'NONE', #165, #153, #63, .T. ) ;
#236 = ORGANIZATION ( 'NEURÈENÝ', 'NEURÈENÝ', '' ) ;
#237 = ORIENTED_EDGE ( 'NONE', *, *, #35, .F. ) ;
#238 = ADVANCED_FACE ( 'NONE', ( #102 ), #61, .F. ) ;
#239 = PRODUCT_DEFINITION_SHAPE ( 'NONE', 'NONE',  #123 ) ;
#240 = VECTOR ( 'NONE', #95, 1000.000000000000000 ) ;
#241 = CC_DESIGN_PERSON_AND_ORGANIZATION_ASSIGNMENT ( #142, #189, ( #175 ) ) ;
#242 = DIRECTION ( 'NONE',  ( 1.000000000000000000, 0.000000000000000000, 0.000000000000000000 ) ) ;
#243 = EDGE_CURVE ( 'NONE', #157, #190, #244, .T. ) ;
#244 = LINE ( 'NONE', #163, #87 ) ;
#245 =( NAMED_UNIT ( * ) SI_UNIT ( $, .STERADIAN. ) SOLID_ANGLE_UNIT ( ) );
#246 = ORIENTED_EDGE ( 'NONE', *, *, #243, .T. ) ;
#247 = SECURITY_CLASSIFICATION ( '', '', #251 ) ;
#248 = DIRECTION ( 'NONE',  ( 1.000000000000000000, 0.000000000000000000, 0.000000000000000000 ) ) ;
#249 = CARTESIAN_POINT ( 'NONE',  ( 0.000000000000000000, 0.000000000000000000, 103.0000000000000142 ) ) ;
#250 = FACE_OUTER_BOUND ( 'NONE', #57, .T. ) ;
#251 = SECURITY_CLASSIFICATION_LEVEL ( 'unclassified' ) ;
#252 = ORIENTED_EDGE ( 'NONE', *, *, #195, .T. ) ;
#253 = DIRECTION ( 'NONE',  ( 0.000000000000000000, 0.000000000000000000, 1.000000000000000000 ) ) ;
#254 = APPROVAL_DATE_TIME ( #83, #19 ) ;
#255 = APPLICATION_CONTEXT ( 'configuration controlled 3d designs of mechanical parts and assemblies' ) ;
ENDSEC;
END-ISO-10303-21;
