ISO-10303-21;
HEADER;
FILE_DESCRIPTION (( 'STEP AP203' ),
    '1' );
FILE_NAME ('4549.STEP',
    '2022-07-07T17:15:37',
    ( '' ),
    ( '' ),
    'SwSTEP 2.0',
    'SolidWorks 2019',
    '' );
FILE_SCHEMA (( 'CONFIG_CONTROL_DESIGN' ));
ENDSEC;

DATA;
#1 = PERSON_AND_ORGANIZATION ( #79, #19 ) ;
#2 = APPROVAL_STATUS ( 'not_yet_approved' ) ;
#3 = ORIENTED_EDGE ( 'NONE', *, *, #25, .F. ) ;
#4 = DIRECTION ( 'NONE',  ( 1.000000000000000000, 0.000000000000000000, 0.000000000000000000 ) ) ;
#5 = CC_DESIGN_PERSON_AND_ORGANIZATION_ASSIGNMENT ( #218, #21, ( #158 ) ) ;
#6 = CARTESIAN_POINT ( 'NONE',  ( 0.000000000000000000, 0.000000000000000000, 0.000000000000000000 ) ) ;
#7 = DIRECTION ( 'NONE',  ( -1.000000000000000000, 0.000000000000000000, 0.000000000000000000 ) ) ;
#8 = FACE_OUTER_BOUND ( 'NONE', #165, .T. ) ;
#9 = VECTOR ( 'NONE', #90, 1000.000000000000000 ) ;
#10 = DIRECTION ( 'NONE',  ( 0.000000000000000000, 0.000000000000000000, 1.000000000000000000 ) ) ;
#11 = CARTESIAN_POINT ( 'NONE',  ( 0.000000000000000000, 0.000000000000000000, 0.000000000000000000 ) ) ;
#12 = DIRECTION ( 'NONE',  ( 0.000000000000000000, 0.000000000000000000, 1.000000000000000000 ) ) ;
#13 = APPROVAL_DATE_TIME ( #118, #41 ) ;
#14 = CARTESIAN_POINT ( 'NONE',  ( 0.000000000000000000, 0.000000000000000000, 207.0000000000000284 ) ) ;
#15 = DESIGN_CONTEXT ( 'detailed design', #153, 'design' ) ;
#16 = EDGE_CURVE ( 'NONE', #254, #107, #44, .T. ) ;
#17 = ORIENTED_EDGE ( 'NONE', *, *, #25, .T. ) ;
#18 = APPROVAL_PERSON_ORGANIZATION ( #238, #148, #20 ) ;
#19 = ORGANIZATION ( 'NEURÈENÝ', 'NEURÈENÝ', '' ) ;
#20 = APPROVAL_ROLE ( '' ) ;
#21 = PERSON_AND_ORGANIZATION_ROLE ( 'creator' ) ;
#22 = ORIENTED_EDGE ( 'NONE', *, *, #192, .T. ) ;
#23 = ORIENTED_EDGE ( 'NONE', *, *, #109, .T. ) ;
#24 = CARTESIAN_POINT ( 'NONE',  ( 0.000000000000000000, 0.000000000000000000, 207.0000000000000284 ) ) ;
#25 = EDGE_CURVE ( 'NONE', #107, #77, #67, .T. ) ;
#26 = CARTESIAN_POINT ( 'NONE',  ( -11.00000000000000000, 0.000000000000000000, 7.000000000000000000 ) ) ;
#27 = CARTESIAN_POINT ( 'NONE',  ( 11.00000000000000000, 1.347111479062088405E-15, 0.000000000000000000 ) ) ;
#28 = FACE_OUTER_BOUND ( 'NONE', #215, .T. ) ;
#29 = CARTESIAN_POINT ( 'NONE',  ( 0.000000000000000000, 0.000000000000000000, 7.000000000000000000 ) ) ;
#30 = CYLINDRICAL_SURFACE ( 'NONE', #38, 11.00000000000000000 ) ;
#31 = EDGE_CURVE ( 'NONE', #179, #217, #184, .T. ) ;
#32 = EDGE_CURVE ( 'NONE', #34, #147, #92, .T. ) ;
#33 = ORIENTED_EDGE ( 'NONE', *, *, #31, .F. ) ;
#34 = VERTEX_POINT ( 'NONE', #88 ) ;
#35 = CC_DESIGN_APPROVAL ( #148, ( #135 ) ) ;
#36 = APPROVAL ( #151, 'NEURÈENÝ' ) ;
#37 = CALENDAR_DATE ( 2022, 7, 7 ) ;
#38 = AXIS2_PLACEMENT_3D ( 'NONE', #94, #250, #73 ) ;
#39 = APPROVAL_DATE_TIME ( #175, #148 ) ;
#40 = ORIENTED_EDGE ( 'NONE', *, *, #16, .F. ) ;
#41 = APPROVAL ( #97, 'NEURÈENÝ' ) ;
#42 = ORIENTED_EDGE ( 'NONE', *, *, #244, .F. ) ;
#43 = APPLICATION_PROTOCOL_DEFINITION ( 'international standard', 'config_control_design', 1994, #153 ) ;
#44 = CIRCLE ( 'NONE', #186, 11.00000000000000000 ) ;
#45 = LOCAL_TIME ( 19, 15, 37.00000000000000000, #209 ) ;
#46 = FACE_OUTER_BOUND ( 'NONE', #201, .T. ) ;
#47 = ADVANCED_FACE ( 'NONE', ( #227 ), #183, .F. ) ;
#48 = DIRECTION ( 'NONE',  ( 0.000000000000000000, 0.000000000000000000, 1.000000000000000000 ) ) ;
#49 = CARTESIAN_POINT ( 'NONE',  ( 0.000000000000000000, 0.000000000000000000, 7.000000000000000000 ) ) ;
#50 =( LENGTH_UNIT ( ) NAMED_UNIT ( * ) SI_UNIT ( .MILLI., .METRE. ) );
#51 = CARTESIAN_POINT ( 'NONE',  ( 0.000000000000000000, 0.000000000000000000, 207.0000000000000284 ) ) ;
#52 = CARTESIAN_POINT ( 'NONE',  ( 0.000000000000000000, 0.000000000000000000, 7.000000000000000000 ) ) ;
#53 = CC_DESIGN_DATE_AND_TIME_ASSIGNMENT ( #145, #230, ( #136 ) ) ;
#54 = APPLICATION_CONTEXT ( 'configuration controlled 3d designs of mechanical parts and assemblies' ) ;
#55 = APPROVAL_PERSON_ORGANIZATION ( #173, #41, #189 ) ;
#56 = ORIENTED_EDGE ( 'NONE', *, *, #182, .T. ) ;
#57 = EDGE_LOOP ( 'NONE', ( #176, #142 ) ) ;
#58 = AXIS2_PLACEMENT_3D ( 'NONE', #24, #228, #249 ) ;
#59 = ADVANCED_FACE ( 'NONE', ( #8 ), #111, .T. ) ;
#60 = COORDINATED_UNIVERSAL_TIME_OFFSET ( 1, 0, .AHEAD. ) ;
#61 = CALENDAR_DATE ( 2022, 7, 7 ) ;
#62 = AXIS2_PLACEMENT_3D ( 'NONE', #6, #48, #131 ) ;
#63 = LOCAL_TIME ( 19, 15, 37.00000000000000000, #60 ) ;
#64 = EDGE_CURVE ( 'NONE', #254, #108, #167, .T. ) ;
#65 = ORIENTED_EDGE ( 'NONE', *, *, #32, .T. ) ;
#66 = EDGE_LOOP ( 'NONE', ( #146, #214 ) ) ;
#67 = LINE ( 'NONE', #26, #9 ) ;
#68 =( NAMED_UNIT ( * ) SI_UNIT ( $, .STERADIAN. ) SOLID_ANGLE_UNIT ( ) );
#69 = CIRCLE ( 'NONE', #202, 6.750000000000000000 ) ;
#70 = CARTESIAN_POINT ( 'NONE',  ( -6.750000000000000000, 0.000000000000000000, 207.0000000000000284 ) ) ;
#71 = DIRECTION ( 'NONE',  ( -1.000000000000000000, 0.000000000000000000, 0.000000000000000000 ) ) ;
#72 = FACE_BOUND ( 'NONE', #66, .T. ) ;
#73 = DIRECTION ( 'NONE',  ( -1.000000000000000000, 0.000000000000000000, 0.000000000000000000 ) ) ;
#74 = CARTESIAN_POINT ( 'NONE',  ( -6.750000000000000000, 0.000000000000000000, 7.000000000000000000 ) ) ;
#75 = ADVANCED_FACE ( 'NONE', ( #46 ), #203, .T. ) ;
#76 = PRODUCT_DEFINITION_SHAPE ( 'NONE', 'NONE',  #158 ) ;
#77 = VERTEX_POINT ( 'NONE', #170 ) ;
#78 = AXIS2_PLACEMENT_3D ( 'NONE', #116, #229, #7 ) ;
#79 = PERSON ( 'NEURÈENÝ', 'NEURÈENÝ', 'NEURÈENÝ', ('NEURÈENÝ'), ('NEURÈENÝ'), ('NEURÈENÝ') ) ;
#80 = COORDINATED_UNIVERSAL_TIME_OFFSET ( 1, 0, .AHEAD. ) ;
#81 = CALENDAR_DATE ( 2022, 7, 7 ) ;
#82 = ADVANCED_FACE ( 'NONE', ( #188 ), #248, .T. ) ;
#83 = EDGE_LOOP ( 'NONE', ( #42, #101, #240, #236 ) ) ;
#84 = PERSON_AND_ORGANIZATION_ROLE ( 'design_supplier' ) ;
#85 = AXIS2_PLACEMENT_3D ( 'NONE', #51, #132, #71 ) ;
#86 = CC_DESIGN_SECURITY_CLASSIFICATION ( #136, ( #135 ) ) ;
#87 = ORIENTED_EDGE ( 'NONE', *, *, #194, .T. ) ;
#88 = CARTESIAN_POINT ( 'NONE',  ( -6.750000000000000000, 0.000000000000000000, 207.0000000000000284 ) ) ;
#89 = MECHANICAL_CONTEXT ( 'NONE', #54, 'mechanical' ) ;
#90 = DIRECTION ( 'NONE',  ( -0.000000000000000000, -0.000000000000000000, -1.000000000000000000 ) ) ;
#91 = DIRECTION ( 'NONE',  ( 1.000000000000000000, 0.000000000000000000, -0.000000000000000000 ) ) ;
#92 = LINE ( 'NONE', #70, #197 ) ;
#93 = CYLINDRICAL_SURFACE ( 'NONE', #78, 6.750000000000000000 ) ;
#94 = CARTESIAN_POINT ( 'NONE',  ( 0.000000000000000000, 0.000000000000000000, 7.000000000000000000 ) ) ;
#95 = ADVANCED_FACE ( 'NONE', ( #72, #154 ), #134, .T. ) ;
#96 = DIRECTION ( 'NONE',  ( 1.000000000000000000, 0.000000000000000000, 0.000000000000000000 ) ) ;
#97 = APPROVAL_STATUS ( 'not_yet_approved' ) ;
#98 = AXIS2_PLACEMENT_3D ( 'NONE', #11, #156, #234 ) ;
#99 = ADVANCED_BREP_SHAPE_REPRESENTATION ( '4549', ( #120, #139 ), #103 ) ;
#100 = LOCAL_TIME ( 19, 15, 37.00000000000000000, #80 ) ;
#101 = ORIENTED_EDGE ( 'NONE', *, *, #31, .T. ) ;
#102 = CC_DESIGN_PERSON_AND_ORGANIZATION_ASSIGNMENT ( #177, #126, ( #135 ) ) ;
#103 =( GEOMETRIC_REPRESENTATION_CONTEXT ( 3 ) GLOBAL_UNCERTAINTY_ASSIGNED_CONTEXT ( ( #119 ) ) GLOBAL_UNIT_ASSIGNED_CONTEXT ( ( #50, #166, #68 ) ) REPRESENTATION_CONTEXT ( 'NONE', 'WORKASPACE' ) );
#104 = COORDINATED_UNIVERSAL_TIME_OFFSET ( 1, 0, .AHEAD. ) ;
#105 = ORIENTED_EDGE ( 'NONE', *, *, #64, .F. ) ;
#106 = CALENDAR_DATE ( 2022, 7, 7 ) ;
#107 = VERTEX_POINT ( 'NONE', #205 ) ;
#108 = VERTEX_POINT ( 'NONE', #27 ) ;
#109 = EDGE_CURVE ( 'NONE', #34, #179, #113, .T. ) ;
#110 = DIRECTION ( 'NONE',  ( -0.000000000000000000, -0.000000000000000000, -1.000000000000000000 ) ) ;
#111 = CYLINDRICAL_SURFACE ( 'NONE', #252, 11.00000000000000000 ) ;
#112 = CARTESIAN_POINT ( 'NONE',  ( 0.000000000000000000, 0.000000000000000000, 207.0000000000000284 ) ) ;
#113 = CIRCLE ( 'NONE', #193, 6.750000000000000000 ) ;
#114 = LOCAL_TIME ( 19, 15, 37.00000000000000000, #198 ) ;
#115 = CARTESIAN_POINT ( 'NONE',  ( 6.750000000000000000, 8.266365894244634333E-16, 207.0000000000000284 ) ) ;
#116 = CARTESIAN_POINT ( 'NONE',  ( 0.000000000000000000, 0.000000000000000000, 207.0000000000000284 ) ) ;
#117 = DIRECTION ( 'NONE',  ( 1.000000000000000000, 0.000000000000000000, 0.000000000000000000 ) ) ;
#118 = DATE_AND_TIME ( #235, #45 ) ;
#119 = UNCERTAINTY_MEASURE_WITH_UNIT (LENGTH_MEASURE( 1.000000000000000082E-05 ), #50, 'distance_accuracy_value', 'NONE');
#120 = MANIFOLD_SOLID_BREP ( 'Pøidat vysunutím3', #159 ) ;
#121 = EDGE_LOOP ( 'NONE', ( #241, #223 ) ) ;
#122 = ORIENTED_EDGE ( 'NONE', *, *, #109, .F. ) ;
#123 = EDGE_CURVE ( 'NONE', #217, #147, #69, .T. ) ;
#124 = DATE_AND_TIME ( #37, #100 ) ;
#125 = PRODUCT ( '4549', '4549', '', ( #89 ) ) ;
#126 = PERSON_AND_ORGANIZATION_ROLE ( 'creator' ) ;
#127 = CARTESIAN_POINT ( 'NONE',  ( 0.000000000000000000, 0.000000000000000000, 7.000000000000000000 ) ) ;
#128 = EDGE_LOOP ( 'NONE', ( #33, #122, #65, #87 ) ) ;
#129 = PERSON_AND_ORGANIZATION ( #79, #19 ) ;
#130 = DIRECTION ( 'NONE',  ( -1.000000000000000000, 0.000000000000000000, 0.000000000000000000 ) ) ;
#131 = DIRECTION ( 'NONE',  ( 1.000000000000000000, 0.000000000000000000, -0.000000000000000000 ) ) ;
#132 = DIRECTION ( 'NONE',  ( -0.000000000000000000, -0.000000000000000000, -1.000000000000000000 ) ) ;
#133 = CARTESIAN_POINT ( 'NONE',  ( 0.000000000000000000, 0.000000000000000000, 0.000000000000000000 ) ) ;
#134 = PLANE ( 'NONE',  #180 ) ;
#135 = PRODUCT_DEFINITION_FORMATION_WITH_SPECIFIED_SOURCE ( 'LIBOVOLNÝ', '', #125, .NOT_KNOWN. ) ;
#136 = SECURITY_CLASSIFICATION ( '', '', #237 ) ;
#137 = DIRECTION ( 'NONE',  ( 1.000000000000000000, 0.000000000000000000, 0.000000000000000000 ) ) ;
#138 = ADVANCED_FACE ( 'NONE', ( #171 ), #93, .T. ) ;
#139 = AXIS2_PLACEMENT_3D ( 'NONE', #242, #245, #4 ) ;
#140 = CC_DESIGN_DATE_AND_TIME_ASSIGNMENT ( #124, #199, ( #158 ) ) ;
#141 = CIRCLE ( 'NONE', #225, 6.750000000000000000 ) ;
#142 = ORIENTED_EDGE ( 'NONE', *, *, #16, .T. ) ;
#143 = CC_DESIGN_PERSON_AND_ORGANIZATION_ASSIGNMENT ( #161, #160, ( #136 ) ) ;
#144 = APPROVAL_DATE_TIME ( #221, #36 ) ;
#145 = DATE_AND_TIME ( #61, #63 ) ;
#146 = ORIENTED_EDGE ( 'NONE', *, *, #194, .F. ) ;
#147 = VERTEX_POINT ( 'NONE', #74 ) ;
#148 = APPROVAL ( #2, 'NEURÈENÝ' ) ;
#149 = PERSON_AND_ORGANIZATION ( #79, #19 ) ;
#150 = CARTESIAN_POINT ( 'NONE',  ( 11.00000000000000000, 1.347111479062088405E-15, 7.000000000000000000 ) ) ;
#151 = APPROVAL_STATUS ( 'not_yet_approved' ) ;
#152 = DIRECTION ( 'NONE',  ( -0.000000000000000000, -0.000000000000000000, -1.000000000000000000 ) ) ;
#153 = APPLICATION_CONTEXT ( 'configuration controlled 3d designs of mechanical parts and assemblies' ) ;
#154 = FACE_OUTER_BOUND ( 'NONE', #57, .T. ) ;
#155 = DIRECTION ( 'NONE',  ( 1.000000000000000000, 0.000000000000000000, 0.000000000000000000 ) ) ;
#156 = DIRECTION ( 'NONE',  ( 0.000000000000000000, 0.000000000000000000, 1.000000000000000000 ) ) ;
#157 = VECTOR ( 'NONE', #224, 1000.000000000000000 ) ;
#158 = PRODUCT_DEFINITION ( 'NEZNÁMÝ', '', #135, #15 ) ;
#159 = CLOSED_SHELL ( 'NONE', ( #138, #59, #196, #95, #47, #82, #75 ) ) ;
#160 = PERSON_AND_ORGANIZATION_ROLE ( 'classification_officer' ) ;
#161 = PERSON_AND_ORGANIZATION ( #79, #19 ) ;
#162 = ORIENTED_EDGE ( 'NONE', *, *, #64, .T. ) ;
#163 = LOCAL_TIME ( 19, 15, 37.00000000000000000, #104 ) ;
#164 = PRODUCT_RELATED_PRODUCT_CATEGORY ( 'detail', '', ( #125 ) ) ;
#165 = EDGE_LOOP ( 'NONE', ( #40, #162, #56, #3 ) ) ;
#166 =( NAMED_UNIT ( * ) PLANE_ANGLE_UNIT ( ) SI_UNIT ( $, .RADIAN. ) );
#167 = LINE ( 'NONE', #150, #157 ) ;
#168 = PERSON_AND_ORGANIZATION_ROLE ( 'design_owner' ) ;
#169 = CARTESIAN_POINT ( 'NONE',  ( 0.000000000000000000, 0.000000000000000000, 7.000000000000000000 ) ) ;
#170 = CARTESIAN_POINT ( 'NONE',  ( -11.00000000000000000, 0.000000000000000000, 0.000000000000000000 ) ) ;
#171 = FACE_OUTER_BOUND ( 'NONE', #83, .T. ) ;
#172 = CARTESIAN_POINT ( 'NONE',  ( 0.000000000000000000, 0.000000000000000000, 7.000000000000000000 ) ) ;
#173 = PERSON_AND_ORGANIZATION ( #79, #19 ) ;
#174 = DIRECTION ( 'NONE',  ( 0.000000000000000000, 0.000000000000000000, 1.000000000000000000 ) ) ;
#175 = DATE_AND_TIME ( #106, #163 ) ;
#176 = ORIENTED_EDGE ( 'NONE', *, *, #232, .T. ) ;
#177 = PERSON_AND_ORGANIZATION ( #79, #19 ) ;
#178 = CC_DESIGN_PERSON_AND_ORGANIZATION_ASSIGNMENT ( #149, #168, ( #125 ) ) ;
#179 = VERTEX_POINT ( 'NONE', #115 ) ;
#180 = AXIS2_PLACEMENT_3D ( 'NONE', #49, #12, #91 ) ;
#181 = APPLICATION_PROTOCOL_DEFINITION ( 'international standard', 'config_control_design', 1994, #54 ) ;
#182 = EDGE_CURVE ( 'NONE', #108, #77, #247, .T. ) ;
#183 = PLANE ( 'NONE',  #62 ) ;
#184 = LINE ( 'NONE', #246, #216 ) ;
#185 = DIRECTION ( 'NONE',  ( 0.000000000000000000, 0.000000000000000000, 1.000000000000000000 ) ) ;
#186 = AXIS2_PLACEMENT_3D ( 'NONE', #127, #200, #243 ) ;
#187 = DIRECTION ( 'NONE',  ( 1.000000000000000000, 0.000000000000000000, 0.000000000000000000 ) ) ;
#188 = FACE_OUTER_BOUND ( 'NONE', #128, .T. ) ;
#189 = APPROVAL_ROLE ( '' ) ;
#190 = CARTESIAN_POINT ( 'NONE',  ( 11.00000000000000000, 1.347111479062088405E-15, 7.000000000000000000 ) ) ;
#191 = SHAPE_DEFINITION_REPRESENTATION ( #76, #99 ) ;
#192 = EDGE_CURVE ( 'NONE', #77, #108, #255, .T. ) ;
#193 = AXIS2_PLACEMENT_3D ( 'NONE', #112, #185, #155 ) ;
#194 = EDGE_CURVE ( 'NONE', #147, #217, #253, .T. ) ;
#195 = ORIENTED_EDGE ( 'NONE', *, *, #232, .F. ) ;
#196 = ADVANCED_FACE ( 'NONE', ( #28 ), #30, .T. ) ;
#197 = VECTOR ( 'NONE', #152, 1000.000000000000000 ) ;
#198 = COORDINATED_UNIVERSAL_TIME_OFFSET ( 1, 0, .AHEAD. ) ;
#199 = DATE_TIME_ROLE ( 'creation_date' ) ;
#200 = DIRECTION ( 'NONE',  ( 0.000000000000000000, 0.000000000000000000, 1.000000000000000000 ) ) ;
#201 = EDGE_LOOP ( 'NONE', ( #23, #222 ) ) ;
#202 = AXIS2_PLACEMENT_3D ( 'NONE', #29, #10, #207 ) ;
#203 = PLANE ( 'NONE',  #58 ) ;
#204 = DIRECTION ( 'NONE',  ( -0.000000000000000000, -0.000000000000000000, -1.000000000000000000 ) ) ;
#205 = CARTESIAN_POINT ( 'NONE',  ( -11.00000000000000000, 0.000000000000000000, 7.000000000000000000 ) ) ;
#206 = DIRECTION ( 'NONE',  ( 0.000000000000000000, 0.000000000000000000, 1.000000000000000000 ) ) ;
#207 = DIRECTION ( 'NONE',  ( 1.000000000000000000, 0.000000000000000000, 0.000000000000000000 ) ) ;
#208 = AXIS2_PLACEMENT_3D ( 'NONE', #172, #211, #96 ) ;
#209 = COORDINATED_UNIVERSAL_TIME_OFFSET ( 1, 0, .AHEAD. ) ;
#210 = CC_DESIGN_APPROVAL ( #41, ( #136 ) ) ;
#211 = DIRECTION ( 'NONE',  ( 0.000000000000000000, 0.000000000000000000, 1.000000000000000000 ) ) ;
#212 = CC_DESIGN_PERSON_AND_ORGANIZATION_ASSIGNMENT ( #1, #84, ( #135 ) ) ;
#213 = CIRCLE ( 'NONE', #220, 11.00000000000000000 ) ;
#214 = ORIENTED_EDGE ( 'NONE', *, *, #123, .F. ) ;
#215 = EDGE_LOOP ( 'NONE', ( #105, #195, #17, #22 ) ) ;
#216 = VECTOR ( 'NONE', #110, 1000.000000000000000 ) ;
#217 = VERTEX_POINT ( 'NONE', #231 ) ;
#218 = PERSON_AND_ORGANIZATION ( #79, #19 ) ;
#219 = CC_DESIGN_APPROVAL ( #36, ( #158 ) ) ;
#220 = AXIS2_PLACEMENT_3D ( 'NONE', #52, #174, #137 ) ;
#221 = DATE_AND_TIME ( #81, #114 ) ;
#222 = ORIENTED_EDGE ( 'NONE', *, *, #244, .T. ) ;
#223 = ORIENTED_EDGE ( 'NONE', *, *, #182, .F. ) ;
#224 = DIRECTION ( 'NONE',  ( -0.000000000000000000, -0.000000000000000000, -1.000000000000000000 ) ) ;
#225 = AXIS2_PLACEMENT_3D ( 'NONE', #14, #251, #117 ) ;
#226 = APPROVAL_ROLE ( '' ) ;
#227 = FACE_OUTER_BOUND ( 'NONE', #121, .T. ) ;
#228 = DIRECTION ( 'NONE',  ( 0.000000000000000000, 0.000000000000000000, 1.000000000000000000 ) ) ;
#229 = DIRECTION ( 'NONE',  ( -0.000000000000000000, -0.000000000000000000, -1.000000000000000000 ) ) ;
#230 = DATE_TIME_ROLE ( 'classification_date' ) ;
#231 = CARTESIAN_POINT ( 'NONE',  ( 6.750000000000000000, 8.266365894244634333E-16, 7.000000000000000000 ) ) ;
#232 = EDGE_CURVE ( 'NONE', #107, #254, #213, .T. ) ;
#233 = AXIS2_PLACEMENT_3D ( 'NONE', #133, #206, #187 ) ;
#234 = DIRECTION ( 'NONE',  ( 1.000000000000000000, 0.000000000000000000, 0.000000000000000000 ) ) ;
#235 = CALENDAR_DATE ( 2022, 7, 7 ) ;
#236 = ORIENTED_EDGE ( 'NONE', *, *, #32, .F. ) ;
#237 = SECURITY_CLASSIFICATION_LEVEL ( 'unclassified' ) ;
#238 = PERSON_AND_ORGANIZATION ( #79, #19 ) ;
#239 = APPROVAL_PERSON_ORGANIZATION ( #129, #36, #226 ) ;
#240 = ORIENTED_EDGE ( 'NONE', *, *, #123, .T. ) ;
#241 = ORIENTED_EDGE ( 'NONE', *, *, #192, .F. ) ;
#242 = CARTESIAN_POINT ( 'NONE',  ( 0.000000000000000000, 0.000000000000000000, 0.000000000000000000 ) ) ;
#243 = DIRECTION ( 'NONE',  ( 1.000000000000000000, 0.000000000000000000, 0.000000000000000000 ) ) ;
#244 = EDGE_CURVE ( 'NONE', #179, #34, #141, .T. ) ;
#245 = DIRECTION ( 'NONE',  ( 0.000000000000000000, 0.000000000000000000, 1.000000000000000000 ) ) ;
#246 = CARTESIAN_POINT ( 'NONE',  ( 6.750000000000000000, 8.266365894244634333E-16, 207.0000000000000284 ) ) ;
#247 = CIRCLE ( 'NONE', #98, 11.00000000000000000 ) ;
#248 = CYLINDRICAL_SURFACE ( 'NONE', #85, 6.750000000000000000 ) ;
#249 = DIRECTION ( 'NONE',  ( 1.000000000000000000, 0.000000000000000000, -0.000000000000000000 ) ) ;
#250 = DIRECTION ( 'NONE',  ( -0.000000000000000000, -0.000000000000000000, -1.000000000000000000 ) ) ;
#251 = DIRECTION ( 'NONE',  ( 0.000000000000000000, 0.000000000000000000, 1.000000000000000000 ) ) ;
#252 = AXIS2_PLACEMENT_3D ( 'NONE', #169, #204, #130 ) ;
#253 = CIRCLE ( 'NONE', #208, 6.750000000000000000 ) ;
#254 = VERTEX_POINT ( 'NONE', #190 ) ;
#255 = CIRCLE ( 'NONE', #233, 11.00000000000000000 ) ;
ENDSEC;
END-ISO-10303-21;
