ISO-10303-21;
HEADER;
FILE_DESCRIPTION (( 'STEP AP203' ),
    '1' );
FILE_NAME ('4e6a.STEP',
    '2023-02-13T09:46:02',
    ( '' ),
    ( '' ),
    'SwSTEP 2.0',
    'SolidWorks 2019',
    '' );
FILE_SCHEMA (( 'CONFIG_CONTROL_DESIGN' ));
ENDSEC;

DATA;
#1 = PLANE ( 'NONE',  #196 ) ;
#2 = AXIS2_PLACEMENT_3D ( 'NONE', #62, #21, #151 ) ;
#3 = CARTESIAN_POINT ( 'NONE',  ( 0.000000000000000000, 0.000000000000000000, 7.000000000000000000 ) ) ;
#4 = ORIENTED_EDGE ( 'NONE', *, *, #39, .T. ) ;
#5 = AXIS2_PLACEMENT_3D ( 'NONE', #224, #122, #26 ) ;
#6 = CARTESIAN_POINT ( 'NONE',  ( -8.000000000000000000, 0.000000000000000000, 500.0000000000000000 ) ) ;
#7 = AXIS2_PLACEMENT_3D ( 'NONE', #107, #184, #127 ) ;
#8 = DIRECTION ( 'NONE',  ( -0.000000000000000000, -0.000000000000000000, -1.000000000000000000 ) ) ;
#9 = CIRCLE ( 'NONE', #5, 11.00000000000000000 ) ;
#10 = CARTESIAN_POINT ( 'NONE',  ( 0.000000000000000000, 0.000000000000000000, 500.0000000000000000 ) ) ;
#11 = VECTOR ( 'NONE', #239, 1000.000000000000000 ) ;
#12 = CALENDAR_DATE ( 2023, 13, 2 ) ;
#13 = EDGE_LOOP ( 'NONE', ( #76, #146 ) ) ;
#14 = LINE ( 'NONE', #162, #163 ) ;
#15 = PERSON_AND_ORGANIZATION ( #119, #73 ) ;
#16 = FACE_BOUND ( 'NONE', #34, .T. ) ;
#17 = DATE_TIME_ROLE ( 'creation_date' ) ;
#18 = VECTOR ( 'NONE', #155, 1000.000000000000000 ) ;
#19 = EDGE_CURVE ( 'NONE', #65, #97, #23, .T. ) ;
#20 = LOCAL_TIME ( 10, 46, 2.000000000000000000, #111 ) ;
#21 = DIRECTION ( 'NONE',  ( 0.000000000000000000, 0.000000000000000000, 1.000000000000000000 ) ) ;
#22 = CARTESIAN_POINT ( 'NONE',  ( 0.000000000000000000, 0.000000000000000000, 7.000000000000000000 ) ) ;
#23 = CIRCLE ( 'NONE', #28, 11.00000000000000000 ) ;
#24 = CARTESIAN_POINT ( 'NONE',  ( -11.00000000000000000, 0.000000000000000000, 7.000000000000000000 ) ) ;
#25 = EDGE_CURVE ( 'NONE', #231, #148, #114, .T. ) ;
#26 = DIRECTION ( 'NONE',  ( 1.000000000000000000, 0.000000000000000000, 0.000000000000000000 ) ) ;
#27 = CC_DESIGN_PERSON_AND_ORGANIZATION_ASSIGNMENT ( #104, #124, ( #102 ) ) ;
#28 = AXIS2_PLACEMENT_3D ( 'NONE', #75, #228, #32 ) ;
#29 = ORIENTED_EDGE ( 'NONE', *, *, #131, .F. ) ;
#30 = AXIS2_PLACEMENT_3D ( 'NONE', #243, #158, #139 ) ;
#31 = COORDINATED_UNIVERSAL_TIME_OFFSET ( 1, 0, .AHEAD. ) ;
#32 = DIRECTION ( 'NONE',  ( 1.000000000000000000, 0.000000000000000000, 0.000000000000000000 ) ) ;
#33 = APPROVAL_ROLE ( '' ) ;
#34 = EDGE_LOOP ( 'NONE', ( #169, #29 ) ) ;
#35 = PERSON_AND_ORGANIZATION ( #119, #73 ) ;
#36 = DIRECTION ( 'NONE',  ( 0.000000000000000000, 0.000000000000000000, 1.000000000000000000 ) ) ;
#37 = CALENDAR_DATE ( 2023, 13, 2 ) ;
#38 = EDGE_LOOP ( 'NONE', ( #144, #252, #4, #165 ) ) ;
#39 = EDGE_CURVE ( 'NONE', #65, #90, #14, .T. ) ;
#40 = CARTESIAN_POINT ( 'NONE',  ( 0.000000000000000000, 0.000000000000000000, 0.000000000000000000 ) ) ;
#41 = AXIS2_PLACEMENT_3D ( 'NONE', #219, #43, #195 ) ;
#42 = FACE_OUTER_BOUND ( 'NONE', #210, .T. ) ;
#43 = DIRECTION ( 'NONE',  ( 0.000000000000000000, 0.000000000000000000, 1.000000000000000000 ) ) ;
#44 = AXIS2_PLACEMENT_3D ( 'NONE', #116, #60, #129 ) ;
#45 = APPROVAL_STATUS ( 'not_yet_approved' ) ;
#46 = CIRCLE ( 'NONE', #30, 8.000000000000000000 ) ;
#47 = ADVANCED_FACE ( 'NONE', ( #16, #230 ), #188, .T. ) ;
#48 = DIRECTION ( 'NONE',  ( 0.000000000000000000, 0.000000000000000000, 1.000000000000000000 ) ) ;
#49 = DIRECTION ( 'NONE',  ( -0.000000000000000000, -0.000000000000000000, -1.000000000000000000 ) ) ;
#50 = APPLICATION_PROTOCOL_DEFINITION ( 'international standard', 'config_control_design', 1994, #207 ) ;
#51 = DATE_AND_TIME ( #37, #176 ) ;
#52 = CLOSED_SHELL ( 'NONE', ( #149, #100, #140, #47, #83, #225, #178 ) ) ;
#53 = APPROVAL_PERSON_ORGANIZATION ( #74, #213, #253 ) ;
#54 = ORIENTED_EDGE ( 'NONE', *, *, #143, .F. ) ;
#55 = APPROVAL_ROLE ( '' ) ;
#56 = ORIENTED_EDGE ( 'NONE', *, *, #131, .T. ) ;
#57 = APPROVAL_DATE_TIME ( #164, #213 ) ;
#58 = VERTEX_POINT ( 'NONE', #255 ) ;
#59 = EDGE_CURVE ( 'NONE', #90, #92, #226, .T. ) ;
#60 = DIRECTION ( 'NONE',  ( 0.000000000000000000, 0.000000000000000000, 1.000000000000000000 ) ) ;
#61 = PRODUCT_DEFINITION_SHAPE ( 'NONE', 'NONE',  #135 ) ;
#62 = CARTESIAN_POINT ( 'NONE',  ( 0.000000000000000000, 0.000000000000000000, 0.000000000000000000 ) ) ;
#63 = AXIS2_PLACEMENT_3D ( 'NONE', #10, #49, #141 ) ;
#64 = DIRECTION ( 'NONE',  ( 1.000000000000000000, 0.000000000000000000, 0.000000000000000000 ) ) ;
#65 = VERTEX_POINT ( 'NONE', #24 ) ;
#66 = CIRCLE ( 'NONE', #94, 8.000000000000000000 ) ;
#67 = CC_DESIGN_PERSON_AND_ORGANIZATION_ASSIGNMENT ( #202, #142, ( #167 ) ) ;
#68 = APPLICATION_PROTOCOL_DEFINITION ( 'international standard', 'config_control_design', 1994, #121 ) ;
#69 = DESIGN_CONTEXT ( 'detailed design', #207, 'design' ) ;
#70 = DIRECTION ( 'NONE',  ( 0.000000000000000000, 0.000000000000000000, 1.000000000000000000 ) ) ;
#71 = APPROVAL_DATE_TIME ( #183, #198 ) ;
#72 = DIRECTION ( 'NONE',  ( -0.000000000000000000, -0.000000000000000000, -1.000000000000000000 ) ) ;
#73 = ORGANIZATION ( 'NEURÈENÝ', 'NEURÈENÝ', '' ) ;
#74 = PERSON_AND_ORGANIZATION ( #119, #73 ) ;
#75 = CARTESIAN_POINT ( 'NONE',  ( 0.000000000000000000, 0.000000000000000000, 7.000000000000000000 ) ) ;
#76 = ORIENTED_EDGE ( 'NONE', *, *, #19, .T. ) ;
#77 = EDGE_LOOP ( 'NONE', ( #209, #194 ) ) ;
#78 =( GEOMETRIC_REPRESENTATION_CONTEXT ( 3 ) GLOBAL_UNCERTAINTY_ASSIGNED_CONTEXT ( ( #159 ) ) GLOBAL_UNIT_ASSIGNED_CONTEXT ( ( #120, #223, #179 ) ) REPRESENTATION_CONTEXT ( 'NONE', 'WORKASPACE' ) );
#79 = LINE ( 'NONE', #150, #18 ) ;
#80 = CARTESIAN_POINT ( 'NONE',  ( 11.00000000000000000, 1.347111479062088405E-15, 7.000000000000000000 ) ) ;
#81 = FACE_OUTER_BOUND ( 'NONE', #88, .T. ) ;
#82 = DIRECTION ( 'NONE',  ( -1.000000000000000000, 0.000000000000000000, 0.000000000000000000 ) ) ;
#83 = ADVANCED_FACE ( 'NONE', ( #132 ), #1, .F. ) ;
#84 = LINE ( 'NONE', #6, #227 ) ;
#85 = CARTESIAN_POINT ( 'NONE',  ( 0.000000000000000000, 0.000000000000000000, 0.000000000000000000 ) ) ;
#86 = EDGE_CURVE ( 'NONE', #97, #92, #113, .T. ) ;
#87 = APPROVAL_STATUS ( 'not_yet_approved' ) ;
#88 = EDGE_LOOP ( 'NONE', ( #190, #168 ) ) ;
#89 = PERSON_AND_ORGANIZATION_ROLE ( 'creator' ) ;
#90 = VERTEX_POINT ( 'NONE', #99 ) ;
#91 = CC_DESIGN_SECURITY_CLASSIFICATION ( #102, ( #156 ) ) ;
#92 = VERTEX_POINT ( 'NONE', #173 ) ;
#93 = CARTESIAN_POINT ( 'NONE',  ( -8.000000000000000000, 0.000000000000000000, 500.0000000000000000 ) ) ;
#94 = AXIS2_PLACEMENT_3D ( 'NONE', #216, #238, #64 ) ;
#95 = DIRECTION ( 'NONE',  ( 0.000000000000000000, 0.000000000000000000, 1.000000000000000000 ) ) ;
#96 = PRODUCT_RELATED_PRODUCT_CATEGORY ( 'detail', '', ( #167 ) ) ;
#97 = VERTEX_POINT ( 'NONE', #80 ) ;
#98 = FACE_OUTER_BOUND ( 'NONE', #38, .T. ) ;
#99 = CARTESIAN_POINT ( 'NONE',  ( -11.00000000000000000, 0.000000000000000000, 0.000000000000000000 ) ) ;
#100 = ADVANCED_FACE ( 'NONE', ( #42 ), #220, .T. ) ;
#101 = CARTESIAN_POINT ( 'NONE',  ( 0.000000000000000000, 0.000000000000000000, 500.0000000000000000 ) ) ;
#102 = SECURITY_CLASSIFICATION ( '', '', #214 ) ;
#103 = PERSON_AND_ORGANIZATION ( #119, #73 ) ;
#104 = PERSON_AND_ORGANIZATION ( #119, #73 ) ;
#105 = ORIENTED_EDGE ( 'NONE', *, *, #39, .F. ) ;
#106 = APPROVAL_PERSON_ORGANIZATION ( #103, #115, #33 ) ;
#107 = CARTESIAN_POINT ( 'NONE',  ( 0.000000000000000000, 0.000000000000000000, 500.0000000000000000 ) ) ;
#108 = COORDINATED_UNIVERSAL_TIME_OFFSET ( 1, 0, .AHEAD. ) ;
#109 = ORIENTED_EDGE ( 'NONE', *, *, #237, .T. ) ;
#110 = ORIENTED_EDGE ( 'NONE', *, *, #185, .T. ) ;
#111 = COORDINATED_UNIVERSAL_TIME_OFFSET ( 1, 0, .AHEAD. ) ;
#112 = DIRECTION ( 'NONE',  ( -1.000000000000000000, 0.000000000000000000, 0.000000000000000000 ) ) ;
#113 = LINE ( 'NONE', #192, #11 ) ;
#114 = CIRCLE ( 'NONE', #7, 8.000000000000000000 ) ;
#115 = APPROVAL ( #45, 'NEURÈENÝ' ) ;
#116 = CARTESIAN_POINT ( 'NONE',  ( 0.000000000000000000, 0.000000000000000000, 7.000000000000000000 ) ) ;
#117 = DIRECTION ( 'NONE',  ( -1.000000000000000000, 0.000000000000000000, 0.000000000000000000 ) ) ;
#118 = DIRECTION ( 'NONE',  ( 1.000000000000000000, 0.000000000000000000, -0.000000000000000000 ) ) ;
#119 = PERSON ( 'NEURÈENÝ', 'NEURÈENÝ', 'NEURÈENÝ', ('NEURÈENÝ'), ('NEURÈENÝ'), ('NEURÈENÝ') ) ;
#120 =( LENGTH_UNIT ( ) NAMED_UNIT ( * ) SI_UNIT ( .MILLI., .METRE. ) );
#121 = APPLICATION_CONTEXT ( 'configuration controlled 3d designs of mechanical parts and assemblies' ) ;
#122 = DIRECTION ( 'NONE',  ( 0.000000000000000000, 0.000000000000000000, 1.000000000000000000 ) ) ;
#123 = CALENDAR_DATE ( 2023, 13, 2 ) ;
#124 = PERSON_AND_ORGANIZATION_ROLE ( 'classification_officer' ) ;
#125 = EDGE_CURVE ( 'NONE', #231, #204, #79, .T. ) ;
#126 = COORDINATED_UNIVERSAL_TIME_OFFSET ( 1, 0, .AHEAD. ) ;
#127 = DIRECTION ( 'NONE',  ( 1.000000000000000000, 0.000000000000000000, 0.000000000000000000 ) ) ;
#128 = PERSON_AND_ORGANIZATION_ROLE ( 'design_supplier' ) ;
#129 = DIRECTION ( 'NONE',  ( 1.000000000000000000, 0.000000000000000000, 0.000000000000000000 ) ) ;
#130 = FACE_OUTER_BOUND ( 'NONE', #187, .T. ) ;
#131 = EDGE_CURVE ( 'NONE', #204, #58, #147, .T. ) ;
#132 = FACE_OUTER_BOUND ( 'NONE', #77, .T. ) ;
#133 = APPROVAL_PERSON_ORGANIZATION ( #35, #198, #55 ) ;
#134 = CYLINDRICAL_SURFACE ( 'NONE', #181, 8.000000000000000000 ) ;
#135 = PRODUCT_DEFINITION ( 'NEZNÁMÝ', '', #156, #69 ) ;
#136 = ORIENTED_EDGE ( 'NONE', *, *, #25, .F. ) ;
#137 = CARTESIAN_POINT ( 'NONE',  ( 8.000000000000000000, 9.797174393178825657E-16, 7.000000000000000000 ) ) ;
#138 = AXIS2_PLACEMENT_3D ( 'NONE', #101, #70, #244 ) ;
#139 = DIRECTION ( 'NONE',  ( 1.000000000000000000, 0.000000000000000000, 0.000000000000000000 ) ) ;
#140 = ADVANCED_FACE ( 'NONE', ( #98 ), #191, .T. ) ;
#141 = DIRECTION ( 'NONE',  ( -1.000000000000000000, 0.000000000000000000, 0.000000000000000000 ) ) ;
#142 = PERSON_AND_ORGANIZATION_ROLE ( 'design_owner' ) ;
#143 = EDGE_CURVE ( 'NONE', #148, #231, #66, .T. ) ;
#144 = ORIENTED_EDGE ( 'NONE', *, *, #86, .F. ) ;
#145 = PERSON_AND_ORGANIZATION ( #119, #73 ) ;
#146 = ORIENTED_EDGE ( 'NONE', *, *, #172, .T. ) ;
#147 = CIRCLE ( 'NONE', #44, 8.000000000000000000 ) ;
#148 = VERTEX_POINT ( 'NONE', #93 ) ;
#149 = ADVANCED_FACE ( 'NONE', ( #130 ), #134, .T. ) ;
#150 = CARTESIAN_POINT ( 'NONE',  ( 8.000000000000000000, 9.797174393178825657E-16, 500.0000000000000000 ) ) ;
#151 = DIRECTION ( 'NONE',  ( 1.000000000000000000, 0.000000000000000000, 0.000000000000000000 ) ) ;
#152 = DIRECTION ( 'NONE',  ( -0.000000000000000000, -0.000000000000000000, -1.000000000000000000 ) ) ;
#153 = CC_DESIGN_PERSON_AND_ORGANIZATION_ASSIGNMENT ( #15, #128, ( #156 ) ) ;
#154 = PLANE ( 'NONE',  #138 ) ;
#155 = DIRECTION ( 'NONE',  ( -0.000000000000000000, -0.000000000000000000, -1.000000000000000000 ) ) ;
#156 = PRODUCT_DEFINITION_FORMATION_WITH_SPECIFIED_SOURCE ( 'LIBOVOLNÝ', '', #167, .NOT_KNOWN. ) ;
#157 = FACE_OUTER_BOUND ( 'NONE', #197, .T. ) ;
#158 = DIRECTION ( 'NONE',  ( 0.000000000000000000, 0.000000000000000000, 1.000000000000000000 ) ) ;
#159 = UNCERTAINTY_MEASURE_WITH_UNIT (LENGTH_MEASURE( 1.000000000000000082E-05 ), #120, 'distance_accuracy_value', 'NONE');
#160 = SHAPE_DEFINITION_REPRESENTATION ( #61, #240 ) ;
#161 = ORIENTED_EDGE ( 'NONE', *, *, #172, .F. ) ;
#162 = CARTESIAN_POINT ( 'NONE',  ( -11.00000000000000000, 0.000000000000000000, 7.000000000000000000 ) ) ;
#163 = VECTOR ( 'NONE', #72, 1000.000000000000000 ) ;
#164 = DATE_AND_TIME ( #189, #193 ) ;
#165 = ORIENTED_EDGE ( 'NONE', *, *, #59, .T. ) ;
#166 = LOCAL_TIME ( 10, 46, 2.000000000000000000, #31 ) ;
#167 = PRODUCT ( '4e6a', '4e6a', '', ( #177 ) ) ;
#168 = ORIENTED_EDGE ( 'NONE', *, *, #25, .T. ) ;
#169 = ORIENTED_EDGE ( 'NONE', *, *, #185, .F. ) ;
#170 = AXIS2_PLACEMENT_3D ( 'NONE', #212, #36, #118 ) ;
#171 = CARTESIAN_POINT ( 'NONE',  ( 0.000000000000000000, 0.000000000000000000, 500.0000000000000000 ) ) ;
#172 = EDGE_CURVE ( 'NONE', #97, #65, #229, .T. ) ;
#173 = CARTESIAN_POINT ( 'NONE',  ( 11.00000000000000000, 1.347111479062088405E-15, 0.000000000000000000 ) ) ;
#174 = DIRECTION ( 'NONE',  ( -0.000000000000000000, -0.000000000000000000, -1.000000000000000000 ) ) ;
#175 = CARTESIAN_POINT ( 'NONE',  ( 8.000000000000000000, 9.797174393178825657E-16, 500.0000000000000000 ) ) ;
#176 = LOCAL_TIME ( 10, 46, 2.000000000000000000, #208 ) ;
#177 = MECHANICAL_CONTEXT ( 'NONE', #121, 'mechanical' ) ;
#178 = ADVANCED_FACE ( 'NONE', ( #81 ), #154, .T. ) ;
#179 =( NAMED_UNIT ( * ) SI_UNIT ( $, .STERADIAN. ) SOLID_ANGLE_UNIT ( ) );
#180 = DATE_AND_TIME ( #123, #20 ) ;
#181 = AXIS2_PLACEMENT_3D ( 'NONE', #171, #236, #117 ) ;
#182 = MANIFOLD_SOLID_BREP ( 'Pøidat vysunutím3', #52 ) ;
#183 = DATE_AND_TIME ( #245, #166 ) ;
#184 = DIRECTION ( 'NONE',  ( 0.000000000000000000, 0.000000000000000000, 1.000000000000000000 ) ) ;
#185 = EDGE_CURVE ( 'NONE', #58, #204, #46, .T. ) ;
#186 = PERSON_AND_ORGANIZATION_ROLE ( 'creator' ) ;
#187 = EDGE_LOOP ( 'NONE', ( #136, #234, #56, #250 ) ) ;
#188 = PLANE ( 'NONE',  #170 ) ;
#189 = CALENDAR_DATE ( 2023, 13, 2 ) ;
#190 = ORIENTED_EDGE ( 'NONE', *, *, #143, .T. ) ;
#191 = CYLINDRICAL_SURFACE ( 'NONE', #205, 11.00000000000000000 ) ;
#192 = CARTESIAN_POINT ( 'NONE',  ( 11.00000000000000000, 1.347111479062088405E-15, 7.000000000000000000 ) ) ;
#193 = LOCAL_TIME ( 10, 46, 2.000000000000000000, #126 ) ;
#194 = ORIENTED_EDGE ( 'NONE', *, *, #246, .F. ) ;
#195 = DIRECTION ( 'NONE',  ( 1.000000000000000000, 0.000000000000000000, 0.000000000000000000 ) ) ;
#196 = AXIS2_PLACEMENT_3D ( 'NONE', #40, #95, #254 ) ;
#197 = EDGE_LOOP ( 'NONE', ( #235, #54, #109, #110 ) ) ;
#198 = APPROVAL ( #87, 'NEURÈENÝ' ) ;
#199 = DIRECTION ( 'NONE',  ( 1.000000000000000000, 0.000000000000000000, 0.000000000000000000 ) ) ;
#200 = CC_DESIGN_DATE_AND_TIME_ASSIGNMENT ( #180, #17, ( #135 ) ) ;
#201 = CC_DESIGN_APPROVAL ( #198, ( #102 ) ) ;
#202 = PERSON_AND_ORGANIZATION ( #119, #73 ) ;
#203 = DATE_TIME_ROLE ( 'classification_date' ) ;
#204 = VERTEX_POINT ( 'NONE', #137 ) ;
#205 = AXIS2_PLACEMENT_3D ( 'NONE', #3, #152, #112 ) ;
#206 = APPROVAL_DATE_TIME ( #51, #115 ) ;
#207 = APPLICATION_CONTEXT ( 'configuration controlled 3d designs of mechanical parts and assemblies' ) ;
#208 = COORDINATED_UNIVERSAL_TIME_OFFSET ( 1, 0, .AHEAD. ) ;
#209 = ORIENTED_EDGE ( 'NONE', *, *, #59, .F. ) ;
#210 = EDGE_LOOP ( 'NONE', ( #161, #247, #232, #105 ) ) ;
#211 = DATE_AND_TIME ( #12, #248 ) ;
#212 = CARTESIAN_POINT ( 'NONE',  ( 0.000000000000000000, 0.000000000000000000, 7.000000000000000000 ) ) ;
#213 = APPROVAL ( #249, 'NEURÈENÝ' ) ;
#214 = SECURITY_CLASSIFICATION_LEVEL ( 'unclassified' ) ;
#215 = AXIS2_PLACEMENT_3D ( 'NONE', #22, #174, #82 ) ;
#216 = CARTESIAN_POINT ( 'NONE',  ( 0.000000000000000000, 0.000000000000000000, 500.0000000000000000 ) ) ;
#217 = CC_DESIGN_APPROVAL ( #213, ( #156 ) ) ;
#218 = CC_DESIGN_PERSON_AND_ORGANIZATION_ASSIGNMENT ( #145, #89, ( #156 ) ) ;
#219 = CARTESIAN_POINT ( 'NONE',  ( 0.000000000000000000, 0.000000000000000000, 7.000000000000000000 ) ) ;
#220 = CYLINDRICAL_SURFACE ( 'NONE', #215, 11.00000000000000000 ) ;
#221 = CC_DESIGN_DATE_AND_TIME_ASSIGNMENT ( #211, #203, ( #102 ) ) ;
#222 = AXIS2_PLACEMENT_3D ( 'NONE', #85, #48, #199 ) ;
#223 =( NAMED_UNIT ( * ) PLANE_ANGLE_UNIT ( ) SI_UNIT ( $, .RADIAN. ) );
#224 = CARTESIAN_POINT ( 'NONE',  ( 0.000000000000000000, 0.000000000000000000, 0.000000000000000000 ) ) ;
#225 = ADVANCED_FACE ( 'NONE', ( #157 ), #241, .T. ) ;
#226 = CIRCLE ( 'NONE', #2, 11.00000000000000000 ) ;
#227 = VECTOR ( 'NONE', #8, 1000.000000000000000 ) ;
#228 = DIRECTION ( 'NONE',  ( 0.000000000000000000, 0.000000000000000000, 1.000000000000000000 ) ) ;
#229 = CIRCLE ( 'NONE', #41, 11.00000000000000000 ) ;
#230 = FACE_OUTER_BOUND ( 'NONE', #13, .T. ) ;
#231 = VERTEX_POINT ( 'NONE', #175 ) ;
#232 = ORIENTED_EDGE ( 'NONE', *, *, #246, .T. ) ;
#233 = PERSON_AND_ORGANIZATION ( #119, #73 ) ;
#234 = ORIENTED_EDGE ( 'NONE', *, *, #125, .T. ) ;
#235 = ORIENTED_EDGE ( 'NONE', *, *, #125, .F. ) ;
#236 = DIRECTION ( 'NONE',  ( -0.000000000000000000, -0.000000000000000000, -1.000000000000000000 ) ) ;
#237 = EDGE_CURVE ( 'NONE', #148, #58, #84, .T. ) ;
#238 = DIRECTION ( 'NONE',  ( 0.000000000000000000, 0.000000000000000000, 1.000000000000000000 ) ) ;
#239 = DIRECTION ( 'NONE',  ( -0.000000000000000000, -0.000000000000000000, -1.000000000000000000 ) ) ;
#240 = ADVANCED_BREP_SHAPE_REPRESENTATION ( '4e6a', ( #182, #222 ), #78 ) ;
#241 = CYLINDRICAL_SURFACE ( 'NONE', #63, 8.000000000000000000 ) ;
#242 = CC_DESIGN_APPROVAL ( #115, ( #135 ) ) ;
#243 = CARTESIAN_POINT ( 'NONE',  ( 0.000000000000000000, 0.000000000000000000, 7.000000000000000000 ) ) ;
#244 = DIRECTION ( 'NONE',  ( 1.000000000000000000, 0.000000000000000000, -0.000000000000000000 ) ) ;
#245 = CALENDAR_DATE ( 2023, 13, 2 ) ;
#246 = EDGE_CURVE ( 'NONE', #92, #90, #9, .T. ) ;
#247 = ORIENTED_EDGE ( 'NONE', *, *, #86, .T. ) ;
#248 = LOCAL_TIME ( 10, 46, 2.000000000000000000, #108 ) ;
#249 = APPROVAL_STATUS ( 'not_yet_approved' ) ;
#250 = ORIENTED_EDGE ( 'NONE', *, *, #237, .F. ) ;
#251 = CC_DESIGN_PERSON_AND_ORGANIZATION_ASSIGNMENT ( #233, #186, ( #135 ) ) ;
#252 = ORIENTED_EDGE ( 'NONE', *, *, #19, .F. ) ;
#253 = APPROVAL_ROLE ( '' ) ;
#254 = DIRECTION ( 'NONE',  ( 1.000000000000000000, 0.000000000000000000, -0.000000000000000000 ) ) ;
#255 = CARTESIAN_POINT ( 'NONE',  ( -8.000000000000000000, 0.000000000000000000, 7.000000000000000000 ) ) ;
ENDSEC;
END-ISO-10303-21;
