ISO-10303-21;
HEADER;
FILE_DESCRIPTION (( 'STEP AP203' ),
    '1' );
FILE_NAME ('bae4.STEP',
    '2022-07-07T18:02:17',
    ( '' ),
    ( '' ),
    'SwSTEP 2.0',
    'SolidWorks 2019',
    '' );
FILE_SCHEMA (( 'CONFIG_CONTROL_DESIGN' ));
ENDSEC;

DATA;
#1 = ADVANCED_FACE ( 'NONE', ( #36 ), #53, .T. ) ;
#2 = PLANE ( 'NONE',  #119 ) ;
#3 = PERSON_AND_ORGANIZATION_ROLE ( 'design_owner' ) ;
#4 = LINE ( 'NONE', #65, #145 ) ;
#5 = PERSON_AND_ORGANIZATION_ROLE ( 'design_supplier' ) ;
#6 = DIRECTION ( 'NONE',  ( 1.000000000000000000, 0.000000000000000000, 0.000000000000000000 ) ) ;
#7 = ORIENTED_EDGE ( 'NONE', *, *, #134, .F. ) ;
#8 = CIRCLE ( 'NONE', #156, 2.000000000000000000 ) ;
#9 = CYLINDRICAL_SURFACE ( 'NONE', #232, 1.000000000000000000 ) ;
#10 = CALENDAR_DATE ( 2022, 7, 7 ) ;
#11 = ADVANCED_FACE ( 'NONE', ( #106 ), #9, .T. ) ;
#12 = ORIENTED_EDGE ( 'NONE', *, *, #80, .F. ) ;
#13 = ORIENTED_EDGE ( 'NONE', *, *, #75, .T. ) ;
#14 = CALENDAR_DATE ( 2022, 7, 7 ) ;
#15 = VERTEX_POINT ( 'NONE', #114 ) ;
#16 = UNCERTAINTY_MEASURE_WITH_UNIT (LENGTH_MEASURE( 1.000000000000000082E-05 ), #78, 'distance_accuracy_value', 'NONE');
#17 = PLANE ( 'NONE',  #197 ) ;
#18 = VERTEX_POINT ( 'NONE', #38 ) ;
#19 = AXIS2_PLACEMENT_3D ( 'NONE', #167, #245, #187 ) ;
#20 = DIRECTION ( 'NONE',  ( 1.000000000000000000, 0.000000000000000000, -0.000000000000000000 ) ) ;
#21 = FACE_OUTER_BOUND ( 'NONE', #171, .T. ) ;
#22 = CIRCLE ( 'NONE', #193, 1.000000000000000000 ) ;
#23 = VECTOR ( 'NONE', #233, 1000.000000000000000 ) ;
#24 = AXIS2_PLACEMENT_3D ( 'NONE', #251, #158, #138 ) ;
#25 = CC_DESIGN_PERSON_AND_ORGANIZATION_ASSIGNMENT ( #219, #87, ( #250 ) ) ;
#26 = ADVANCED_FACE ( 'NONE', ( #127 ), #86, .T. ) ;
#27 = CARTESIAN_POINT ( 'NONE',  ( 0.000000000000000000, 0.000000000000000000, 0.000000000000000000 ) ) ;
#28 = COORDINATED_UNIVERSAL_TIME_OFFSET ( 1, 0, .AHEAD. ) ;
#29 = CARTESIAN_POINT ( 'NONE',  ( 0.000000000000000000, 0.000000000000000000, 2.000000000000000000 ) ) ;
#30 = DATE_AND_TIME ( #238, #174 ) ;
#31 = VERTEX_POINT ( 'NONE', #189 ) ;
#32 = CARTESIAN_POINT ( 'NONE',  ( 0.000000000000000000, 0.000000000000000000, 127.0000000000000000 ) ) ;
#33 = CALENDAR_DATE ( 2022, 7, 7 ) ;
#34 = VECTOR ( 'NONE', #83, 1000.000000000000000 ) ;
#35 = APPROVAL_PERSON_ORGANIZATION ( #56, #209, #72 ) ;
#36 = FACE_OUTER_BOUND ( 'NONE', #204, .T. ) ;
#37 = SHAPE_DEFINITION_REPRESENTATION ( #109, #52 ) ;
#38 = CARTESIAN_POINT ( 'NONE',  ( -2.000000000000000000, 0.000000000000000000, 0.000000000000000000 ) ) ;
#39 = ADVANCED_FACE ( 'NONE', ( #149 ), #17, .F. ) ;
#40 = PRODUCT_DEFINITION_FORMATION_WITH_SPECIFIED_SOURCE ( 'LIBOVOLNÝ', '', #148, .NOT_KNOWN. ) ;
#41 = ADVANCED_FACE ( 'NONE', ( #146 ), #202, .T. ) ;
#42 = CARTESIAN_POINT ( 'NONE',  ( 1.000000000000000000, 1.224646799147353207E-16, 2.000000000000000000 ) ) ;
#43 = AXIS2_PLACEMENT_3D ( 'NONE', #206, #237, #117 ) ;
#44 = PERSON_AND_ORGANIZATION ( #164, #194 ) ;
#45 = CC_DESIGN_PERSON_AND_ORGANIZATION_ASSIGNMENT ( #234, #147, ( #40 ) ) ;
#46 = AXIS2_PLACEMENT_3D ( 'NONE', #125, #162, #225 ) ;
#47 = DIRECTION ( 'NONE',  ( -1.000000000000000000, 0.000000000000000000, 0.000000000000000000 ) ) ;
#48 = EDGE_CURVE ( 'NONE', #108, #222, #71, .T. ) ;
#49 = AXIS2_PLACEMENT_3D ( 'NONE', #215, #212, #47 ) ;
#50 = DIRECTION ( 'NONE',  ( 0.000000000000000000, 0.000000000000000000, 1.000000000000000000 ) ) ;
#51 = EDGE_CURVE ( 'NONE', #222, #15, #22, .T. ) ;
#52 = ADVANCED_BREP_SHAPE_REPRESENTATION ( 'bae4', ( #231, #191 ), #208 ) ;
#53 = PLANE ( 'NONE',  #46 ) ;
#54 = VERTEX_POINT ( 'NONE', #239 ) ;
#55 = CARTESIAN_POINT ( 'NONE',  ( 0.000000000000000000, 0.000000000000000000, 2.000000000000000000 ) ) ;
#56 = PERSON_AND_ORGANIZATION ( #164, #194 ) ;
#57 = DIRECTION ( 'NONE',  ( 0.000000000000000000, 0.000000000000000000, 1.000000000000000000 ) ) ;
#58 = ORIENTED_EDGE ( 'NONE', *, *, #142, .T. ) ;
#59 = ORIENTED_EDGE ( 'NONE', *, *, #48, .T. ) ;
#60 = APPROVAL_PERSON_ORGANIZATION ( #178, #195, #201 ) ;
#61 = DIRECTION ( 'NONE',  ( 0.000000000000000000, 0.000000000000000000, 1.000000000000000000 ) ) ;
#62 = CC_DESIGN_SECURITY_CLASSIFICATION ( #250, ( #40 ) ) ;
#63 = CC_DESIGN_PERSON_AND_ORGANIZATION_ASSIGNMENT ( #203, #188, ( #96 ) ) ;
#64 = CARTESIAN_POINT ( 'NONE',  ( 0.000000000000000000, 0.000000000000000000, 2.000000000000000000 ) ) ;
#65 = CARTESIAN_POINT ( 'NONE',  ( -1.000000000000000000, 0.000000000000000000, 127.0000000000000000 ) ) ;
#66 = CARTESIAN_POINT ( 'NONE',  ( 2.000000000000000000, 2.449293598294706414E-16, 2.000000000000000000 ) ) ;
#67 = CALENDAR_DATE ( 2022, 7, 7 ) ;
#68 = ORIENTED_EDGE ( 'NONE', *, *, #135, .T. ) ;
#69 = DIRECTION ( 'NONE',  ( 1.000000000000000000, 0.000000000000000000, 0.000000000000000000 ) ) ;
#70 = ORIENTED_EDGE ( 'NONE', *, *, #136, .F. ) ;
#71 = LINE ( 'NONE', #132, #248 ) ;
#72 = APPROVAL_ROLE ( '' ) ;
#73 = VERTEX_POINT ( 'NONE', #81 ) ;
#74 = AXIS2_PLACEMENT_3D ( 'NONE', #211, #61, #124 ) ;
#75 = EDGE_CURVE ( 'NONE', #15, #222, #94, .T. ) ;
#76 = LOCAL_TIME ( 20, 2, 17.00000000000000000, #128 ) ;
#77 =( NAMED_UNIT ( * ) PLANE_ANGLE_UNIT ( ) SI_UNIT ( $, .RADIAN. ) );
#78 =( LENGTH_UNIT ( ) NAMED_UNIT ( * ) SI_UNIT ( .MILLI., .METRE. ) );
#79 = APPLICATION_PROTOCOL_DEFINITION ( 'international standard', 'config_control_design', 1994, #252 ) ;
#80 = EDGE_CURVE ( 'NONE', #31, #15, #4, .T. ) ;
#81 = CARTESIAN_POINT ( 'NONE',  ( 2.000000000000000000, 2.449293598294706414E-16, 0.000000000000000000 ) ) ;
#82 = DATE_AND_TIME ( #14, #85 ) ;
#83 = DIRECTION ( 'NONE',  ( -0.000000000000000000, -0.000000000000000000, -1.000000000000000000 ) ) ;
#84 = ORIENTED_EDGE ( 'NONE', *, *, #101, .T. ) ;
#85 = LOCAL_TIME ( 20, 2, 17.00000000000000000, #28 ) ;
#86 = CYLINDRICAL_SURFACE ( 'NONE', #43, 2.000000000000000000 ) ;
#87 = PERSON_AND_ORGANIZATION_ROLE ( 'classification_officer' ) ;
#88 = ORIENTED_EDGE ( 'NONE', *, *, #135, .F. ) ;
#89 = DIRECTION ( 'NONE',  ( 1.000000000000000000, 0.000000000000000000, -0.000000000000000000 ) ) ;
#90 = DATE_AND_TIME ( #33, #144 ) ;
#91 = ORIENTED_EDGE ( 'NONE', *, *, #51, .F. ) ;
#92 = CC_DESIGN_DATE_AND_TIME_ASSIGNMENT ( #199, #170, ( #96 ) ) ;
#93 = DIRECTION ( 'NONE',  ( 0.000000000000000000, 0.000000000000000000, 1.000000000000000000 ) ) ;
#94 = CIRCLE ( 'NONE', #143, 1.000000000000000000 ) ;
#95 = ORIENTED_EDGE ( 'NONE', *, *, #101, .F. ) ;
#96 = PRODUCT_DEFINITION ( 'NEZNÁMÝ', '', #40, #186 ) ;
#97 = LOCAL_TIME ( 20, 2, 17.00000000000000000, #107 ) ;
#98 = APPLICATION_PROTOCOL_DEFINITION ( 'international standard', 'config_control_design', 1994, #210 ) ;
#99 = DIRECTION ( 'NONE',  ( 0.000000000000000000, 0.000000000000000000, 1.000000000000000000 ) ) ;
#100 = CIRCLE ( 'NONE', #24, 2.000000000000000000 ) ;
#101 = EDGE_CURVE ( 'NONE', #54, #18, #218, .T. ) ;
#102 = APPROVAL_PERSON_ORGANIZATION ( #126, #121, #163 ) ;
#103 = CARTESIAN_POINT ( 'NONE',  ( 0.000000000000000000, 0.000000000000000000, 127.0000000000000000 ) ) ;
#104 = ORIENTED_EDGE ( 'NONE', *, *, #217, .T. ) ;
#105 = APPROVAL_STATUS ( 'not_yet_approved' ) ;
#106 = FACE_OUTER_BOUND ( 'NONE', #133, .T. ) ;
#107 = COORDINATED_UNIVERSAL_TIME_OFFSET ( 1, 0, .AHEAD. ) ;
#108 = VERTEX_POINT ( 'NONE', #200 ) ;
#109 = PRODUCT_DEFINITION_SHAPE ( 'NONE', 'NONE',  #96 ) ;
#110 = DIRECTION ( 'NONE',  ( -0.000000000000000000, -0.000000000000000000, -1.000000000000000000 ) ) ;
#111 = DATE_AND_TIME ( #10, #76 ) ;
#112 = ORIENTED_EDGE ( 'NONE', *, *, #142, .F. ) ;
#113 = CIRCLE ( 'NONE', #228, 1.000000000000000000 ) ;
#114 = CARTESIAN_POINT ( 'NONE',  ( -1.000000000000000000, 0.000000000000000000, 2.000000000000000000 ) ) ;
#115 = CC_DESIGN_PERSON_AND_ORGANIZATION_ASSIGNMENT ( #246, #5, ( #40 ) ) ;
#116 = ORIENTED_EDGE ( 'NONE', *, *, #136, .T. ) ;
#117 = DIRECTION ( 'NONE',  ( -1.000000000000000000, 0.000000000000000000, 0.000000000000000000 ) ) ;
#118 = ORIENTED_EDGE ( 'NONE', *, *, #80, .T. ) ;
#119 = AXIS2_PLACEMENT_3D ( 'NONE', #64, #99, #20 ) ;
#120 = DIRECTION ( 'NONE',  ( 0.000000000000000000, 0.000000000000000000, 1.000000000000000000 ) ) ;
#121 = APPROVAL ( #105, 'NEURÈENÝ' ) ;
#122 = DIRECTION ( 'NONE',  ( 0.000000000000000000, 0.000000000000000000, 1.000000000000000000 ) ) ;
#123 = AXIS2_PLACEMENT_3D ( 'NONE', #160, #235, #161 ) ;
#124 = DIRECTION ( 'NONE',  ( 1.000000000000000000, 0.000000000000000000, 0.000000000000000000 ) ) ;
#125 = CARTESIAN_POINT ( 'NONE',  ( 0.000000000000000000, 0.000000000000000000, 127.0000000000000000 ) ) ;
#126 = PERSON_AND_ORGANIZATION ( #164, #194 ) ;
#127 = FACE_OUTER_BOUND ( 'NONE', #181, .T. ) ;
#128 = COORDINATED_UNIVERSAL_TIME_OFFSET ( 1, 0, .AHEAD. ) ;
#129 = EDGE_LOOP ( 'NONE', ( #169, #112, #118, #13 ) ) ;
#130 = CARTESIAN_POINT ( 'NONE',  ( 0.000000000000000000, 0.000000000000000000, 0.000000000000000000 ) ) ;
#131 = APPROVAL_DATE_TIME ( #82, #195 ) ;
#132 = CARTESIAN_POINT ( 'NONE',  ( 1.000000000000000000, 1.224646799147353207E-16, 127.0000000000000000 ) ) ;
#133 = EDGE_LOOP ( 'NONE', ( #240, #59, #247, #12 ) ) ;
#134 = EDGE_CURVE ( 'NONE', #226, #54, #224, .T. ) ;
#135 = EDGE_CURVE ( 'NONE', #226, #73, #165, .T. ) ;
#136 = EDGE_CURVE ( 'NONE', #18, #73, #100, .T. ) ;
#137 = CLOSED_SHELL ( 'NONE', ( #11, #26, #41, #236, #39, #213, #1 ) ) ;
#138 = DIRECTION ( 'NONE',  ( 1.000000000000000000, 0.000000000000000000, 0.000000000000000000 ) ) ;
#139 = AXIS2_PLACEMENT_3D ( 'NONE', #29, #179, #6 ) ;
#140 = CC_DESIGN_APPROVAL ( #209, ( #250 ) ) ;
#141 = FACE_OUTER_BOUND ( 'NONE', #129, .T. ) ;
#142 = EDGE_CURVE ( 'NONE', #31, #108, #113, .T. ) ;
#143 = AXIS2_PLACEMENT_3D ( 'NONE', #55, #57, #177 ) ;
#144 = LOCAL_TIME ( 20, 2, 17.00000000000000000, #242 ) ;
#145 = VECTOR ( 'NONE', #220, 1000.000000000000000 ) ;
#146 = FACE_OUTER_BOUND ( 'NONE', #243, .T. ) ;
#147 = PERSON_AND_ORGANIZATION_ROLE ( 'creator' ) ;
#148 = PRODUCT ( 'bae4', 'bae4', '', ( #175 ) ) ;
#149 = FACE_OUTER_BOUND ( 'NONE', #190, .T. ) ;
#150 = DATE_TIME_ROLE ( 'classification_date' ) ;
#151 = ORIENTED_EDGE ( 'NONE', *, *, #75, .F. ) ;
#152 = CARTESIAN_POINT ( 'NONE',  ( 0.000000000000000000, 0.000000000000000000, 2.000000000000000000 ) ) ;
#153 = COORDINATED_UNIVERSAL_TIME_OFFSET ( 1, 0, .AHEAD. ) ;
#154 = ORIENTED_EDGE ( 'NONE', *, *, #207, .T. ) ;
#155 = ORIENTED_EDGE ( 'NONE', *, *, #173, .T. ) ;
#156 = AXIS2_PLACEMENT_3D ( 'NONE', #198, #122, #192 ) ;
#157 =( NAMED_UNIT ( * ) SI_UNIT ( $, .STERADIAN. ) SOLID_ANGLE_UNIT ( ) );
#158 = DIRECTION ( 'NONE',  ( 0.000000000000000000, 0.000000000000000000, 1.000000000000000000 ) ) ;
#159 = CIRCLE ( 'NONE', #74, 2.000000000000000000 ) ;
#160 = CARTESIAN_POINT ( 'NONE',  ( 0.000000000000000000, 0.000000000000000000, 127.0000000000000000 ) ) ;
#161 = DIRECTION ( 'NONE',  ( 1.000000000000000000, 0.000000000000000000, 0.000000000000000000 ) ) ;
#162 = DIRECTION ( 'NONE',  ( 0.000000000000000000, 0.000000000000000000, 1.000000000000000000 ) ) ;
#163 = APPROVAL_ROLE ( '' ) ;
#164 = PERSON ( 'NEURÈENÝ', 'NEURÈENÝ', 'NEURÈENÝ', ('NEURÈENÝ'), ('NEURÈENÝ'), ('NEURÈENÝ') ) ;
#165 = LINE ( 'NONE', #66, #23 ) ;
#166 = PRODUCT_RELATED_PRODUCT_CATEGORY ( 'detail', '', ( #148 ) ) ;
#167 = CARTESIAN_POINT ( 'NONE',  ( 0.000000000000000000, 0.000000000000000000, 2.000000000000000000 ) ) ;
#168 = APPROVAL_DATE_TIME ( #111, #121 ) ;
#169 = ORIENTED_EDGE ( 'NONE', *, *, #48, .F. ) ;
#170 = DATE_TIME_ROLE ( 'creation_date' ) ;
#171 = EDGE_LOOP ( 'NONE', ( #154, #185 ) ) ;
#172 = ORIENTED_EDGE ( 'NONE', *, *, #207, .F. ) ;
#173 = EDGE_CURVE ( 'NONE', #108, #31, #249, .T. ) ;
#174 = LOCAL_TIME ( 20, 2, 17.00000000000000000, #153 ) ;
#175 = MECHANICAL_CONTEXT ( 'NONE', #210, 'mechanical' ) ;
#176 = CYLINDRICAL_SURFACE ( 'NONE', #49, 1.000000000000000000 ) ;
#177 = DIRECTION ( 'NONE',  ( 1.000000000000000000, 0.000000000000000000, 0.000000000000000000 ) ) ;
#178 = PERSON_AND_ORGANIZATION ( #164, #194 ) ;
#179 = DIRECTION ( 'NONE',  ( 0.000000000000000000, 0.000000000000000000, 1.000000000000000000 ) ) ;
#180 = APPROVAL_DATE_TIME ( #30, #209 ) ;
#181 = EDGE_LOOP ( 'NONE', ( #7, #68, #104, #95 ) ) ;
#182 = CARTESIAN_POINT ( 'NONE',  ( -2.000000000000000000, 0.000000000000000000, 2.000000000000000000 ) ) ;
#183 = APPROVAL_STATUS ( 'not_yet_approved' ) ;
#184 = CC_DESIGN_APPROVAL ( #195, ( #40 ) ) ;
#185 = ORIENTED_EDGE ( 'NONE', *, *, #134, .T. ) ;
#186 = DESIGN_CONTEXT ( 'detailed design', #252, 'design' ) ;
#187 = DIRECTION ( 'NONE',  ( -1.000000000000000000, 0.000000000000000000, 0.000000000000000000 ) ) ;
#188 = PERSON_AND_ORGANIZATION_ROLE ( 'creator' ) ;
#189 = CARTESIAN_POINT ( 'NONE',  ( -1.000000000000000000, 0.000000000000000000, 127.0000000000000000 ) ) ;
#190 = EDGE_LOOP ( 'NONE', ( #70, #205 ) ) ;
#191 = AXIS2_PLACEMENT_3D ( 'NONE', #27, #120, #229 ) ;
#192 = DIRECTION ( 'NONE',  ( 1.000000000000000000, 0.000000000000000000, 0.000000000000000000 ) ) ;
#193 = AXIS2_PLACEMENT_3D ( 'NONE', #152, #50, #69 ) ;
#194 = ORGANIZATION ( 'NEURÈENÝ', 'NEURÈENÝ', '' ) ;
#195 = APPROVAL ( #183, 'NEURÈENÝ' ) ;
#196 = DIRECTION ( 'NONE',  ( 0.000000000000000000, 0.000000000000000000, 1.000000000000000000 ) ) ;
#197 = AXIS2_PLACEMENT_3D ( 'NONE', #130, #93, #89 ) ;
#198 = CARTESIAN_POINT ( 'NONE',  ( 0.000000000000000000, 0.000000000000000000, 0.000000000000000000 ) ) ;
#199 = DATE_AND_TIME ( #67, #97 ) ;
#200 = CARTESIAN_POINT ( 'NONE',  ( 1.000000000000000000, 1.224646799147353207E-16, 127.0000000000000000 ) ) ;
#201 = APPROVAL_ROLE ( '' ) ;
#202 = CYLINDRICAL_SURFACE ( 'NONE', #19, 2.000000000000000000 ) ;
#203 = PERSON_AND_ORGANIZATION ( #164, #194 ) ;
#204 = EDGE_LOOP ( 'NONE', ( #58, #155 ) ) ;
#205 = ORIENTED_EDGE ( 'NONE', *, *, #217, .F. ) ;
#206 = CARTESIAN_POINT ( 'NONE',  ( 0.000000000000000000, 0.000000000000000000, 2.000000000000000000 ) ) ;
#207 = EDGE_CURVE ( 'NONE', #54, #226, #159, .T. ) ;
#208 =( GEOMETRIC_REPRESENTATION_CONTEXT ( 3 ) GLOBAL_UNCERTAINTY_ASSIGNED_CONTEXT ( ( #16 ) ) GLOBAL_UNIT_ASSIGNED_CONTEXT ( ( #78, #77, #157 ) ) REPRESENTATION_CONTEXT ( 'NONE', 'WORKASPACE' ) );
#209 = APPROVAL ( #221, 'NEURÈENÝ' ) ;
#210 = APPLICATION_CONTEXT ( 'configuration controlled 3d designs of mechanical parts and assemblies' ) ;
#211 = CARTESIAN_POINT ( 'NONE',  ( 0.000000000000000000, 0.000000000000000000, 2.000000000000000000 ) ) ;
#212 = DIRECTION ( 'NONE',  ( -0.000000000000000000, -0.000000000000000000, -1.000000000000000000 ) ) ;
#213 = ADVANCED_FACE ( 'NONE', ( #141 ), #176, .T. ) ;
#214 = CARTESIAN_POINT ( 'NONE',  ( 2.000000000000000000, 2.449293598294706414E-16, 2.000000000000000000 ) ) ;
#215 = CARTESIAN_POINT ( 'NONE',  ( 0.000000000000000000, 0.000000000000000000, 127.0000000000000000 ) ) ;
#216 = SECURITY_CLASSIFICATION_LEVEL ( 'unclassified' ) ;
#217 = EDGE_CURVE ( 'NONE', #73, #18, #8, .T. ) ;
#218 = LINE ( 'NONE', #182, #34 ) ;
#219 = PERSON_AND_ORGANIZATION ( #164, #194 ) ;
#220 = DIRECTION ( 'NONE',  ( -0.000000000000000000, -0.000000000000000000, -1.000000000000000000 ) ) ;
#221 = APPROVAL_STATUS ( 'not_yet_approved' ) ;
#222 = VERTEX_POINT ( 'NONE', #42 ) ;
#223 = DIRECTION ( 'NONE',  ( -0.000000000000000000, -0.000000000000000000, -1.000000000000000000 ) ) ;
#224 = CIRCLE ( 'NONE', #139, 2.000000000000000000 ) ;
#225 = DIRECTION ( 'NONE',  ( 1.000000000000000000, 0.000000000000000000, -0.000000000000000000 ) ) ;
#226 = VERTEX_POINT ( 'NONE', #214 ) ;
#227 = EDGE_LOOP ( 'NONE', ( #151, #91 ) ) ;
#228 = AXIS2_PLACEMENT_3D ( 'NONE', #103, #196, #230 ) ;
#229 = DIRECTION ( 'NONE',  ( 1.000000000000000000, 0.000000000000000000, 0.000000000000000000 ) ) ;
#230 = DIRECTION ( 'NONE',  ( 1.000000000000000000, 0.000000000000000000, 0.000000000000000000 ) ) ;
#231 = MANIFOLD_SOLID_BREP ( 'Pøidat vysunutím3', #137 ) ;
#232 = AXIS2_PLACEMENT_3D ( 'NONE', #32, #110, #241 ) ;
#233 = DIRECTION ( 'NONE',  ( -0.000000000000000000, -0.000000000000000000, -1.000000000000000000 ) ) ;
#234 = PERSON_AND_ORGANIZATION ( #164, #194 ) ;
#235 = DIRECTION ( 'NONE',  ( 0.000000000000000000, 0.000000000000000000, 1.000000000000000000 ) ) ;
#236 = ADVANCED_FACE ( 'NONE', ( #253, #21 ), #2, .T. ) ;
#237 = DIRECTION ( 'NONE',  ( -0.000000000000000000, -0.000000000000000000, -1.000000000000000000 ) ) ;
#238 = CALENDAR_DATE ( 2022, 7, 7 ) ;
#239 = CARTESIAN_POINT ( 'NONE',  ( -2.000000000000000000, 0.000000000000000000, 2.000000000000000000 ) ) ;
#240 = ORIENTED_EDGE ( 'NONE', *, *, #173, .F. ) ;
#241 = DIRECTION ( 'NONE',  ( -1.000000000000000000, 0.000000000000000000, 0.000000000000000000 ) ) ;
#242 = COORDINATED_UNIVERSAL_TIME_OFFSET ( 1, 0, .AHEAD. ) ;
#243 = EDGE_LOOP ( 'NONE', ( #88, #172, #84, #116 ) ) ;
#244 = CC_DESIGN_PERSON_AND_ORGANIZATION_ASSIGNMENT ( #44, #3, ( #148 ) ) ;
#245 = DIRECTION ( 'NONE',  ( -0.000000000000000000, -0.000000000000000000, -1.000000000000000000 ) ) ;
#246 = PERSON_AND_ORGANIZATION ( #164, #194 ) ;
#247 = ORIENTED_EDGE ( 'NONE', *, *, #51, .T. ) ;
#248 = VECTOR ( 'NONE', #223, 1000.000000000000000 ) ;
#249 = CIRCLE ( 'NONE', #123, 1.000000000000000000 ) ;
#250 = SECURITY_CLASSIFICATION ( '', '', #216 ) ;
#251 = CARTESIAN_POINT ( 'NONE',  ( 0.000000000000000000, 0.000000000000000000, 0.000000000000000000 ) ) ;
#252 = APPLICATION_CONTEXT ( 'configuration controlled 3d designs of mechanical parts and assemblies' ) ;
#253 = FACE_BOUND ( 'NONE', #227, .T. ) ;
#254 = CC_DESIGN_APPROVAL ( #121, ( #96 ) ) ;
#255 = CC_DESIGN_DATE_AND_TIME_ASSIGNMENT ( #90, #150, ( #250 ) ) ;
ENDSEC;
END-ISO-10303-21;
