ISO-10303-21;
HEADER;
FILE_DESCRIPTION (( 'STEP AP203' ),
    '1' );
FILE_NAME ('230b.STEP',
    '2023-02-13T10:42:51',
    ( '' ),
    ( '' ),
    'SwSTEP 2.0',
    'SolidWorks 2019',
    '' );
FILE_SCHEMA (( 'CONFIG_CONTROL_DESIGN' ));
ENDSEC;

DATA;
#1 = ORIENTED_EDGE ( 'NONE', *, *, #55, .F. ) ;
#2 = PERSON_AND_ORGANIZATION_ROLE ( 'classification_officer' ) ;
#3 = DIRECTION ( 'NONE',  ( -0.000000000000000000, -0.000000000000000000, -1.000000000000000000 ) ) ;
#4 = CARTESIAN_POINT ( 'NONE',  ( 0.000000000000000000, 0.000000000000000000, 315.0000000000000000 ) ) ;
#5 = AXIS2_PLACEMENT_3D ( 'NONE', #187, #13, #30 ) ;
#6 = CARTESIAN_POINT ( 'NONE',  ( 0.000000000000000000, 0.000000000000000000, 315.0000000000000000 ) ) ;
#7 = ADVANCED_FACE ( 'NONE', ( #222 ), #50, .T. ) ;
#8 = CYLINDRICAL_SURFACE ( 'NONE', #213, 11.00000000000000000 ) ;
#9 = DIRECTION ( 'NONE',  ( -0.000000000000000000, -0.000000000000000000, -1.000000000000000000 ) ) ;
#10 = ORIENTED_EDGE ( 'NONE', *, *, #189, .T. ) ;
#11 = ORIENTED_EDGE ( 'NONE', *, *, #36, .F. ) ;
#12 = CIRCLE ( 'NONE', #31, 11.00000000000000000 ) ;
#13 = DIRECTION ( 'NONE',  ( 0.000000000000000000, 0.000000000000000000, 1.000000000000000000 ) ) ;
#14 = APPROVAL_DATE_TIME ( #190, #198 ) ;
#15 = CIRCLE ( 'NONE', #87, 11.00000000000000000 ) ;
#16 = APPLICATION_PROTOCOL_DEFINITION ( 'international standard', 'config_control_design', 1994, #249 ) ;
#17 = UNCERTAINTY_MEASURE_WITH_UNIT (LENGTH_MEASURE( 1.000000000000000082E-05 ), #218, 'distance_accuracy_value', 'NONE');
#18 = APPROVAL ( #109, 'NEURÈENÝ' ) ;
#19 = APPROVAL_DATE_TIME ( #60, #133 ) ;
#20 = APPROVAL_ROLE ( '' ) ;
#21 = SECURITY_CLASSIFICATION_LEVEL ( 'unclassified' ) ;
#22 = VERTEX_POINT ( 'NONE', #25 ) ;
#23 = PRODUCT_DEFINITION_SHAPE ( 'NONE', 'NONE',  #131 ) ;
#24 = LINE ( 'NONE', #159, #128 ) ;
#25 = CARTESIAN_POINT ( 'NONE',  ( -11.00000000000000000, 0.000000000000000000, 7.000000000000000000 ) ) ;
#26 = FACE_OUTER_BOUND ( 'NONE', #82, .T. ) ;
#27 = DIRECTION ( 'NONE',  ( 1.000000000000000000, 0.000000000000000000, 0.000000000000000000 ) ) ;
#28 = CARTESIAN_POINT ( 'NONE',  ( 0.000000000000000000, 0.000000000000000000, 315.0000000000000000 ) ) ;
#29 = CARTESIAN_POINT ( 'NONE',  ( 7.000000000000000000, 8.572527594031473190E-16, 315.0000000000000000 ) ) ;
#30 = DIRECTION ( 'NONE',  ( 1.000000000000000000, 0.000000000000000000, -0.000000000000000000 ) ) ;
#31 = AXIS2_PLACEMENT_3D ( 'NONE', #121, #81, #205 ) ;
#32 = DIRECTION ( 'NONE',  ( -1.000000000000000000, 0.000000000000000000, 0.000000000000000000 ) ) ;
#33 = EDGE_CURVE ( 'NONE', #202, #66, #167, .T. ) ;
#34 = AXIS2_PLACEMENT_3D ( 'NONE', #28, #99, #98 ) ;
#35 = CC_DESIGN_PERSON_AND_ORGANIZATION_ASSIGNMENT ( #149, #192, ( #67 ) ) ;
#36 = EDGE_CURVE ( 'NONE', #22, #136, #225, .T. ) ;
#37 = PERSON_AND_ORGANIZATION ( #214, #171 ) ;
#38 = AXIS2_PLACEMENT_3D ( 'NONE', #80, #247, #188 ) ;
#39 = PERSON_AND_ORGANIZATION ( #214, #171 ) ;
#40 = ORIENTED_EDGE ( 'NONE', *, *, #75, .T. ) ;
#41 = CARTESIAN_POINT ( 'NONE',  ( 11.00000000000000000, 1.347111479062088405E-15, 7.000000000000000000 ) ) ;
#42 = AXIS2_PLACEMENT_3D ( 'NONE', #103, #141, #179 ) ;
#43 = CC_DESIGN_APPROVAL ( #198, ( #131 ) ) ;
#44 = ADVANCED_FACE ( 'NONE', ( #180 ), #8, .T. ) ;
#45 = CARTESIAN_POINT ( 'NONE',  ( 0.000000000000000000, 0.000000000000000000, 315.0000000000000000 ) ) ;
#46 = CC_DESIGN_DATE_AND_TIME_ASSIGNMENT ( #62, #195, ( #131 ) ) ;
#47 = ORIENTED_EDGE ( 'NONE', *, *, #86, .F. ) ;
#48 = CARTESIAN_POINT ( 'NONE',  ( 0.000000000000000000, 0.000000000000000000, 7.000000000000000000 ) ) ;
#49 = DIRECTION ( 'NONE',  ( -0.000000000000000000, -0.000000000000000000, -1.000000000000000000 ) ) ;
#50 = CYLINDRICAL_SURFACE ( 'NONE', #34, 7.000000000000000000 ) ;
#51 = CARTESIAN_POINT ( 'NONE',  ( 0.000000000000000000, 0.000000000000000000, 315.0000000000000000 ) ) ;
#52 = ORIENTED_EDGE ( 'NONE', *, *, #33, .F. ) ;
#53 = DIRECTION ( 'NONE',  ( 1.000000000000000000, 0.000000000000000000, 0.000000000000000000 ) ) ;
#54 = AXIS2_PLACEMENT_3D ( 'NONE', #255, #88, #148 ) ;
#55 = EDGE_CURVE ( 'NONE', #66, #202, #239, .T. ) ;
#56 = PERSON_AND_ORGANIZATION_ROLE ( 'creator' ) ;
#57 = APPROVAL_STATUS ( 'not_yet_approved' ) ;
#58 = DATE_TIME_ROLE ( 'classification_date' ) ;
#59 = AXIS2_PLACEMENT_3D ( 'NONE', #51, #68, #165 ) ;
#60 = DATE_AND_TIME ( #132, #242 ) ;
#61 = CLOSED_SHELL ( 'NONE', ( #7, #157, #44, #91, #111, #147, #74 ) ) ;
#62 = DATE_AND_TIME ( #240, #63 ) ;
#63 = LOCAL_TIME ( 11, 42, 51.00000000000000000, #155 ) ;
#64 = ORIENTED_EDGE ( 'NONE', *, *, #226, .F. ) ;
#65 = FACE_BOUND ( 'NONE', #150, .T. ) ;
#66 = VERTEX_POINT ( 'NONE', #123 ) ;
#67 = PRODUCT_DEFINITION_FORMATION_WITH_SPECIFIED_SOURCE ( 'LIBOVOLNÝ', '', #152, .NOT_KNOWN. ) ;
#68 = DIRECTION ( 'NONE',  ( -0.000000000000000000, -0.000000000000000000, -1.000000000000000000 ) ) ;
#69 = DIRECTION ( 'NONE',  ( -1.000000000000000000, 0.000000000000000000, 0.000000000000000000 ) ) ;
#70 = APPLICATION_CONTEXT ( 'configuration controlled 3d designs of mechanical parts and assemblies' ) ;
#71 = FACE_OUTER_BOUND ( 'NONE', #182, .T. ) ;
#72 = VECTOR ( 'NONE', #3, 1000.000000000000000 ) ;
#73 = CC_DESIGN_PERSON_AND_ORGANIZATION_ASSIGNMENT ( #193, #2, ( #186 ) ) ;
#74 = ADVANCED_FACE ( 'NONE', ( #217 ), #76, .T. ) ;
#75 = EDGE_CURVE ( 'NONE', #66, #210, #24, .T. ) ;
#76 = PLANE ( 'NONE',  #106 ) ;
#77 = LOCAL_TIME ( 11, 42, 51.00000000000000000, #237 ) ;
#78 = CARTESIAN_POINT ( 'NONE',  ( 0.000000000000000000, 0.000000000000000000, 7.000000000000000000 ) ) ;
#79 = CARTESIAN_POINT ( 'NONE',  ( 0.000000000000000000, 0.000000000000000000, 7.000000000000000000 ) ) ;
#80 = CARTESIAN_POINT ( 'NONE',  ( 0.000000000000000000, 0.000000000000000000, 7.000000000000000000 ) ) ;
#81 = DIRECTION ( 'NONE',  ( 0.000000000000000000, 0.000000000000000000, 1.000000000000000000 ) ) ;
#82 = EDGE_LOOP ( 'NONE', ( #156, #184 ) ) ;
#83 = DIRECTION ( 'NONE',  ( 0.000000000000000000, 0.000000000000000000, 1.000000000000000000 ) ) ;
#84 = CARTESIAN_POINT ( 'NONE',  ( 11.00000000000000000, 1.347111479062088405E-15, 7.000000000000000000 ) ) ;
#85 = FACE_OUTER_BOUND ( 'NONE', #94, .T. ) ;
#86 = EDGE_CURVE ( 'NONE', #210, #206, #231, .T. ) ;
#87 = AXIS2_PLACEMENT_3D ( 'NONE', #251, #207, #27 ) ;
#88 = DIRECTION ( 'NONE',  ( 0.000000000000000000, 0.000000000000000000, 1.000000000000000000 ) ) ;
#89 = SHAPE_DEFINITION_REPRESENTATION ( #23, #238 ) ;
#90 = VERTEX_POINT ( 'NONE', #245 ) ;
#91 = ADVANCED_FACE ( 'NONE', ( #65, #26 ), #101, .T. ) ;
#92 = APPROVAL_ROLE ( '' ) ;
#93 = AXIS2_PLACEMENT_3D ( 'NONE', #48, #100, #248 ) ;
#94 = EDGE_LOOP ( 'NONE', ( #196, #64 ) ) ;
#95 = PERSON_AND_ORGANIZATION ( #214, #171 ) ;
#96 = LOCAL_TIME ( 11, 42, 51.00000000000000000, #174 ) ;
#97 = ORIENTED_EDGE ( 'NONE', *, *, #244, .T. ) ;
#98 = DIRECTION ( 'NONE',  ( -1.000000000000000000, 0.000000000000000000, 0.000000000000000000 ) ) ;
#99 = DIRECTION ( 'NONE',  ( -0.000000000000000000, -0.000000000000000000, -1.000000000000000000 ) ) ;
#100 = DIRECTION ( 'NONE',  ( 0.000000000000000000, 0.000000000000000000, 1.000000000000000000 ) ) ;
#101 = PLANE ( 'NONE',  #5 ) ;
#102 = ORIENTED_EDGE ( 'NONE', *, *, #117, .T. ) ;
#103 = CARTESIAN_POINT ( 'NONE',  ( 0.000000000000000000, 0.000000000000000000, 0.000000000000000000 ) ) ;
#104 = CARTESIAN_POINT ( 'NONE',  ( 7.000000000000000000, 8.572527594031473190E-16, 315.0000000000000000 ) ) ;
#105 = CALENDAR_DATE ( 2023, 13, 2 ) ;
#106 = AXIS2_PLACEMENT_3D ( 'NONE', #45, #115, #199 ) ;
#107 = COORDINATED_UNIVERSAL_TIME_OFFSET ( 1, 0, .AHEAD. ) ;
#108 = ORIENTED_EDGE ( 'NONE', *, *, #170, .T. ) ;
#109 = APPROVAL_STATUS ( 'not_yet_approved' ) ;
#110 = AXIS2_PLACEMENT_3D ( 'NONE', #79, #119, #160 ) ;
#111 = ADVANCED_FACE ( 'NONE', ( #85 ), #166, .F. ) ;
#112 = ORIENTED_EDGE ( 'NONE', *, *, #33, .T. ) ;
#113 = CIRCLE ( 'NONE', #145, 11.00000000000000000 ) ;
#114 = ORIENTED_EDGE ( 'NONE', *, *, #226, .T. ) ;
#115 = DIRECTION ( 'NONE',  ( 0.000000000000000000, 0.000000000000000000, 1.000000000000000000 ) ) ;
#116 = ORIENTED_EDGE ( 'NONE', *, *, #211, .F. ) ;
#117 = EDGE_CURVE ( 'NONE', #206, #210, #144, .T. ) ;
#118 = APPROVAL_PERSON_ORGANIZATION ( #95, #18, #92 ) ;
#119 = DIRECTION ( 'NONE',  ( 0.000000000000000000, 0.000000000000000000, 1.000000000000000000 ) ) ;
#120 = EDGE_LOOP ( 'NONE', ( #52, #235, #102, #135 ) ) ;
#121 = CARTESIAN_POINT ( 'NONE',  ( 0.000000000000000000, 0.000000000000000000, 7.000000000000000000 ) ) ;
#122 = AXIS2_PLACEMENT_3D ( 'NONE', #4, #241, #223 ) ;
#123 = CARTESIAN_POINT ( 'NONE',  ( -7.000000000000000000, 0.000000000000000000, 315.0000000000000000 ) ) ;
#124 = PRODUCT_RELATED_PRODUCT_CATEGORY ( 'detail', '', ( #152 ) ) ;
#125 = DIRECTION ( 'NONE',  ( -0.000000000000000000, -0.000000000000000000, -1.000000000000000000 ) ) ;
#126 = CYLINDRICAL_SURFACE ( 'NONE', #215, 11.00000000000000000 ) ;
#127 = CC_DESIGN_DATE_AND_TIME_ASSIGNMENT ( #172, #58, ( #186 ) ) ;
#128 = VECTOR ( 'NONE', #243, 1000.000000000000000 ) ;
#129 = APPROVAL_STATUS ( 'not_yet_approved' ) ;
#130 = APPROVAL_ROLE ( '' ) ;
#131 = PRODUCT_DEFINITION ( 'NEZNÁMÝ', '', #67, #232 ) ;
#132 = CALENDAR_DATE ( 2023, 13, 2 ) ;
#133 = APPROVAL ( #57, 'NEURÈENÝ' ) ;
#134 = CALENDAR_DATE ( 2023, 13, 2 ) ;
#135 = ORIENTED_EDGE ( 'NONE', *, *, #75, .F. ) ;
#136 = VERTEX_POINT ( 'NONE', #84 ) ;
#137 = DIRECTION ( 'NONE',  ( -0.000000000000000000, -0.000000000000000000, -1.000000000000000000 ) ) ;
#138 = CARTESIAN_POINT ( 'NONE',  ( -11.00000000000000000, 0.000000000000000000, 7.000000000000000000 ) ) ;
#139 = CC_DESIGN_APPROVAL ( #18, ( #67 ) ) ;
#140 = ORIENTED_EDGE ( 'NONE', *, *, #55, .T. ) ;
#141 = DIRECTION ( 'NONE',  ( 0.000000000000000000, 0.000000000000000000, 1.000000000000000000 ) ) ;
#142 = CARTESIAN_POINT ( 'NONE',  ( 0.000000000000000000, 0.000000000000000000, 0.000000000000000000 ) ) ;
#143 = FACE_OUTER_BOUND ( 'NONE', #175, .T. ) ;
#144 = CIRCLE ( 'NONE', #38, 7.000000000000000000 ) ;
#145 = AXIS2_PLACEMENT_3D ( 'NONE', #142, #183, #53 ) ;
#146 = PERSON_AND_ORGANIZATION_ROLE ( 'design_owner' ) ;
#147 = ADVANCED_FACE ( 'NONE', ( #71 ), #227, .T. ) ;
#148 = DIRECTION ( 'NONE',  ( 1.000000000000000000, 0.000000000000000000, 0.000000000000000000 ) ) ;
#149 = PERSON_AND_ORGANIZATION ( #214, #171 ) ;
#150 = EDGE_LOOP ( 'NONE', ( #47, #204 ) ) ;
#151 = LOCAL_TIME ( 11, 42, 51.00000000000000000, #229 ) ;
#152 = PRODUCT ( '230b', '230b', '', ( #233 ) ) ;
#153 = ORIENTED_EDGE ( 'NONE', *, *, #86, .T. ) ;
#154 = CALENDAR_DATE ( 2023, 13, 2 ) ;
#155 = COORDINATED_UNIVERSAL_TIME_OFFSET ( 1, 0, .AHEAD. ) ;
#156 = ORIENTED_EDGE ( 'NONE', *, *, #36, .T. ) ;
#157 = ADVANCED_FACE ( 'NONE', ( #143 ), #126, .T. ) ;
#158 =( NAMED_UNIT ( * ) PLANE_ANGLE_UNIT ( ) SI_UNIT ( $, .RADIAN. ) );
#159 = CARTESIAN_POINT ( 'NONE',  ( -7.000000000000000000, 0.000000000000000000, 315.0000000000000000 ) ) ;
#160 = DIRECTION ( 'NONE',  ( 1.000000000000000000, 0.000000000000000000, 0.000000000000000000 ) ) ;
#161 = CARTESIAN_POINT ( 'NONE',  ( 7.000000000000000000, 8.572527594031473190E-16, 7.000000000000000000 ) ) ;
#162 = ORIENTED_EDGE ( 'NONE', *, *, #194, .F. ) ;
#163 = VECTOR ( 'NONE', #49, 1000.000000000000000 ) ;
#164 = DIRECTION ( 'NONE',  ( 1.000000000000000000, 0.000000000000000000, 0.000000000000000000 ) ) ;
#165 = DIRECTION ( 'NONE',  ( -1.000000000000000000, 0.000000000000000000, 0.000000000000000000 ) ) ;
#166 = PLANE ( 'NONE',  #42 ) ;
#167 = CIRCLE ( 'NONE', #173, 7.000000000000000000 ) ;
#168 = PERSON_AND_ORGANIZATION ( #214, #171 ) ;
#169 = VECTOR ( 'NONE', #9, 1000.000000000000000 ) ;
#170 = EDGE_CURVE ( 'NONE', #22, #219, #224, .T. ) ;
#171 = ORGANIZATION ( 'NEURÈENÝ', 'NEURÈENÝ', '' ) ;
#172 = DATE_AND_TIME ( #154, #96 ) ;
#173 = AXIS2_PLACEMENT_3D ( 'NONE', #6, #83, #164 ) ;
#174 = COORDINATED_UNIVERSAL_TIME_OFFSET ( 1, 0, .AHEAD. ) ;
#175 = EDGE_LOOP ( 'NONE', ( #162, #97, #114, #176 ) ) ;
#176 = ORIENTED_EDGE ( 'NONE', *, *, #170, .F. ) ;
#177 = CC_DESIGN_PERSON_AND_ORGANIZATION_ASSIGNMENT ( #230, #56, ( #131 ) ) ;
#178 = EDGE_LOOP ( 'NONE', ( #246, #11, #108, #10 ) ) ;
#179 = DIRECTION ( 'NONE',  ( 1.000000000000000000, 0.000000000000000000, -0.000000000000000000 ) ) ;
#180 = FACE_OUTER_BOUND ( 'NONE', #178, .T. ) ;
#181 = CARTESIAN_POINT ( 'NONE',  ( 0.000000000000000000, 0.000000000000000000, 7.000000000000000000 ) ) ;
#182 = EDGE_LOOP ( 'NONE', ( #116, #1, #40, #153 ) ) ;
#183 = DIRECTION ( 'NONE',  ( 0.000000000000000000, 0.000000000000000000, 1.000000000000000000 ) ) ;
#184 = ORIENTED_EDGE ( 'NONE', *, *, #194, .T. ) ;
#185 = CARTESIAN_POINT ( 'NONE',  ( -11.00000000000000000, 0.000000000000000000, 0.000000000000000000 ) ) ;
#186 = SECURITY_CLASSIFICATION ( '', '', #21 ) ;
#187 = CARTESIAN_POINT ( 'NONE',  ( 0.000000000000000000, 0.000000000000000000, 7.000000000000000000 ) ) ;
#188 = DIRECTION ( 'NONE',  ( 1.000000000000000000, 0.000000000000000000, 0.000000000000000000 ) ) ;
#189 = EDGE_CURVE ( 'NONE', #219, #90, #113, .T. ) ;
#190 = DATE_AND_TIME ( #105, #151 ) ;
#191 = CC_DESIGN_SECURITY_CLASSIFICATION ( #186, ( #67 ) ) ;
#192 = PERSON_AND_ORGANIZATION_ROLE ( 'creator' ) ;
#193 = PERSON_AND_ORGANIZATION ( #214, #171 ) ;
#194 = EDGE_CURVE ( 'NONE', #136, #22, #12, .T. ) ;
#195 = DATE_TIME_ROLE ( 'creation_date' ) ;
#196 = ORIENTED_EDGE ( 'NONE', *, *, #189, .F. ) ;
#197 = LINE ( 'NONE', #41, #72 ) ;
#198 = APPROVAL ( #129, 'NEURÈENÝ' ) ;
#199 = DIRECTION ( 'NONE',  ( 1.000000000000000000, 0.000000000000000000, -0.000000000000000000 ) ) ;
#200 =( NAMED_UNIT ( * ) SI_UNIT ( $, .STERADIAN. ) SOLID_ANGLE_UNIT ( ) );
#201 = EDGE_LOOP ( 'NONE', ( #140, #112 ) ) ;
#202 = VERTEX_POINT ( 'NONE', #29 ) ;
#203 = LINE ( 'NONE', #104, #163 ) ;
#204 = ORIENTED_EDGE ( 'NONE', *, *, #117, .F. ) ;
#205 = DIRECTION ( 'NONE',  ( 1.000000000000000000, 0.000000000000000000, 0.000000000000000000 ) ) ;
#206 = VERTEX_POINT ( 'NONE', #161 ) ;
#207 = DIRECTION ( 'NONE',  ( 0.000000000000000000, 0.000000000000000000, 1.000000000000000000 ) ) ;
#208 = CC_DESIGN_APPROVAL ( #133, ( #186 ) ) ;
#209 = APPROVAL_DATE_TIME ( #212, #18 ) ;
#210 = VERTEX_POINT ( 'NONE', #221 ) ;
#211 = EDGE_CURVE ( 'NONE', #202, #206, #203, .T. ) ;
#212 = DATE_AND_TIME ( #134, #77 ) ;
#213 = AXIS2_PLACEMENT_3D ( 'NONE', #78, #137, #69 ) ;
#214 = PERSON ( 'NEURÈENÝ', 'NEURÈENÝ', 'NEURÈENÝ', ('NEURÈENÝ'), ('NEURÈENÝ'), ('NEURÈENÝ') ) ;
#215 = AXIS2_PLACEMENT_3D ( 'NONE', #181, #125, #32 ) ;
#216 = MANIFOLD_SOLID_BREP ( 'Pøidat vysunutím3', #61 ) ;
#217 = FACE_OUTER_BOUND ( 'NONE', #201, .T. ) ;
#218 =( LENGTH_UNIT ( ) NAMED_UNIT ( * ) SI_UNIT ( .MILLI., .METRE. ) );
#219 = VERTEX_POINT ( 'NONE', #185 ) ;
#220 = CC_DESIGN_PERSON_AND_ORGANIZATION_ASSIGNMENT ( #39, #234, ( #67 ) ) ;
#221 = CARTESIAN_POINT ( 'NONE',  ( -7.000000000000000000, 0.000000000000000000, 7.000000000000000000 ) ) ;
#222 = FACE_OUTER_BOUND ( 'NONE', #120, .T. ) ;
#223 = DIRECTION ( 'NONE',  ( 1.000000000000000000, 0.000000000000000000, 0.000000000000000000 ) ) ;
#224 = LINE ( 'NONE', #138, #169 ) ;
#225 = CIRCLE ( 'NONE', #93, 11.00000000000000000 ) ;
#226 = EDGE_CURVE ( 'NONE', #90, #219, #15, .T. ) ;
#227 = CYLINDRICAL_SURFACE ( 'NONE', #59, 7.000000000000000000 ) ;
#228 =( GEOMETRIC_REPRESENTATION_CONTEXT ( 3 ) GLOBAL_UNCERTAINTY_ASSIGNED_CONTEXT ( ( #17 ) ) GLOBAL_UNIT_ASSIGNED_CONTEXT ( ( #218, #158, #200 ) ) REPRESENTATION_CONTEXT ( 'NONE', 'WORKASPACE' ) );
#229 = COORDINATED_UNIVERSAL_TIME_OFFSET ( 1, 0, .AHEAD. ) ;
#230 = PERSON_AND_ORGANIZATION ( #214, #171 ) ;
#231 = CIRCLE ( 'NONE', #110, 7.000000000000000000 ) ;
#232 = DESIGN_CONTEXT ( 'detailed design', #70, 'design' ) ;
#233 = MECHANICAL_CONTEXT ( 'NONE', #249, 'mechanical' ) ;
#234 = PERSON_AND_ORGANIZATION_ROLE ( 'design_supplier' ) ;
#235 = ORIENTED_EDGE ( 'NONE', *, *, #211, .T. ) ;
#236 = APPROVAL_PERSON_ORGANIZATION ( #37, #198, #130 ) ;
#237 = COORDINATED_UNIVERSAL_TIME_OFFSET ( 1, 0, .AHEAD. ) ;
#238 = ADVANCED_BREP_SHAPE_REPRESENTATION ( '230b', ( #216, #54 ), #228 ) ;
#239 = CIRCLE ( 'NONE', #122, 7.000000000000000000 ) ;
#240 = CALENDAR_DATE ( 2023, 13, 2 ) ;
#241 = DIRECTION ( 'NONE',  ( 0.000000000000000000, 0.000000000000000000, 1.000000000000000000 ) ) ;
#242 = LOCAL_TIME ( 11, 42, 51.00000000000000000, #107 ) ;
#243 = DIRECTION ( 'NONE',  ( -0.000000000000000000, -0.000000000000000000, -1.000000000000000000 ) ) ;
#244 = EDGE_CURVE ( 'NONE', #136, #90, #197, .T. ) ;
#245 = CARTESIAN_POINT ( 'NONE',  ( 11.00000000000000000, 1.347111479062088405E-15, 0.000000000000000000 ) ) ;
#246 = ORIENTED_EDGE ( 'NONE', *, *, #244, .F. ) ;
#247 = DIRECTION ( 'NONE',  ( 0.000000000000000000, 0.000000000000000000, 1.000000000000000000 ) ) ;
#248 = DIRECTION ( 'NONE',  ( 1.000000000000000000, 0.000000000000000000, 0.000000000000000000 ) ) ;
#249 = APPLICATION_CONTEXT ( 'configuration controlled 3d designs of mechanical parts and assemblies' ) ;
#250 = CC_DESIGN_PERSON_AND_ORGANIZATION_ASSIGNMENT ( #168, #146, ( #152 ) ) ;
#251 = CARTESIAN_POINT ( 'NONE',  ( 0.000000000000000000, 0.000000000000000000, 0.000000000000000000 ) ) ;
#252 = APPLICATION_PROTOCOL_DEFINITION ( 'international standard', 'config_control_design', 1994, #70 ) ;
#253 = APPROVAL_PERSON_ORGANIZATION ( #254, #133, #20 ) ;
#254 = PERSON_AND_ORGANIZATION ( #214, #171 ) ;
#255 = CARTESIAN_POINT ( 'NONE',  ( 0.000000000000000000, 0.000000000000000000, 0.000000000000000000 ) ) ;
ENDSEC;
END-ISO-10303-21;
