ISO-10303-21;
HEADER;
FILE_DESCRIPTION (( 'STEP AP203' ),
    '1' );
FILE_NAME ('6aa9.STEP',
    '2022-07-07T17:53:08',
    ( '' ),
    ( '' ),
    'SwSTEP 2.0',
    'SolidWorks 2019',
    '' );
FILE_SCHEMA (( 'CONFIG_CONTROL_DESIGN' ));
ENDSEC;

DATA;
#1 = AXIS2_PLACEMENT_3D ( 'NONE', #95, #151, #144 ) ;
#2 = CC_DESIGN_PERSON_AND_ORGANIZATION_ASSIGNMENT ( #108, #14, ( #141 ) ) ;
#3 = PRODUCT_DEFINITION_FORMATION_WITH_SPECIFIED_SOURCE ( 'LIBOVOLNÝ', '', #173, .NOT_KNOWN. ) ;
#4 = DIRECTION ( 'NONE',  ( 1.000000000000000000, 0.000000000000000000, 0.000000000000000000 ) ) ;
#5 = DIRECTION ( 'NONE',  ( 1.000000000000000000, 0.000000000000000000, 0.000000000000000000 ) ) ;
#6 = CALENDAR_DATE ( 2022, 7, 7 ) ;
#7 = AXIS2_PLACEMENT_3D ( 'NONE', #209, #129, #4 ) ;
#8 = APPROVAL_STATUS ( 'not_yet_approved' ) ;
#9 = CIRCLE ( 'NONE', #86, 3.500000000000000000 ) ;
#10 = CARTESIAN_POINT ( 'NONE',  ( 0.000000000000000000, 0.000000000000000000, 0.000000000000000000 ) ) ;
#11 = DATE_TIME_ROLE ( 'creation_date' ) ;
#12 = DIRECTION ( 'NONE',  ( 1.000000000000000000, 0.000000000000000000, -0.000000000000000000 ) ) ;
#13 = CARTESIAN_POINT ( 'NONE',  ( -3.500000000000000000, 0.000000000000000000, 0.000000000000000000 ) ) ;
#14 = PERSON_AND_ORGANIZATION_ROLE ( 'creator' ) ;
#15 = LINE ( 'NONE', #155, #237 ) ;
#16 = COORDINATED_UNIVERSAL_TIME_OFFSET ( 1, 0, .AHEAD. ) ;
#17 = VERTEX_POINT ( 'NONE', #56 ) ;
#18 = ORIENTED_EDGE ( 'NONE', *, *, #39, .T. ) ;
#19 = ORIENTED_EDGE ( 'NONE', *, *, #125, .F. ) ;
#20 = EDGE_CURVE ( 'NONE', #121, #17, #126, .T. ) ;
#21 = VECTOR ( 'NONE', #187, 1000.000000000000000 ) ;
#22 = VERTEX_POINT ( 'NONE', #76 ) ;
#23 = AXIS2_PLACEMENT_3D ( 'NONE', #247, #130, #208 ) ;
#24 = DIRECTION ( 'NONE',  ( -1.000000000000000000, 0.000000000000000000, 0.000000000000000000 ) ) ;
#25 = CYLINDRICAL_SURFACE ( 'NONE', #1, 3.500000000000000000 ) ;
#26 = APPROVAL_ROLE ( '' ) ;
#27 = ADVANCED_FACE ( 'NONE', ( #142 ), #230, .T. ) ;
#28 = DIRECTION ( 'NONE',  ( 1.000000000000000000, 0.000000000000000000, 0.000000000000000000 ) ) ;
#29 = CARTESIAN_POINT ( 'NONE',  ( 0.000000000000000000, 0.000000000000000000, 403.0000000000000000 ) ) ;
#30 = AXIS2_PLACEMENT_3D ( 'NONE', #113, #143, #12 ) ;
#31 = CARTESIAN_POINT ( 'NONE',  ( -3.500000000000000000, 0.000000000000000000, 3.000000000000000000 ) ) ;
#32 = CC_DESIGN_SECURITY_CLASSIFICATION ( #252, ( #3 ) ) ;
#33 = DIRECTION ( 'NONE',  ( 1.000000000000000000, 0.000000000000000000, -0.000000000000000000 ) ) ;
#34 = DIRECTION ( 'NONE',  ( 0.000000000000000000, 0.000000000000000000, 1.000000000000000000 ) ) ;
#35 = DIRECTION ( 'NONE',  ( 0.000000000000000000, 0.000000000000000000, 1.000000000000000000 ) ) ;
#36 = ORIENTED_EDGE ( 'NONE', *, *, #245, .T. ) ;
#37 = VECTOR ( 'NONE', #229, 1000.000000000000000 ) ;
#38 = VERTEX_POINT ( 'NONE', #196 ) ;
#39 = EDGE_CURVE ( 'NONE', #22, #17, #149, .T. ) ;
#40 = ORIENTED_EDGE ( 'NONE', *, *, #200, .T. ) ;
#41 = CC_DESIGN_DATE_AND_TIME_ASSIGNMENT ( #171, #11, ( #141 ) ) ;
#42 = LOCAL_TIME ( 19, 53, 8.000000000000000000, #228 ) ;
#43 = EDGE_CURVE ( 'NONE', #121, #120, #185, .T. ) ;
#44 = CIRCLE ( 'NONE', #219, 3.500000000000000000 ) ;
#45 = DIRECTION ( 'NONE',  ( 1.000000000000000000, 0.000000000000000000, 0.000000000000000000 ) ) ;
#46 = DIRECTION ( 'NONE',  ( -1.000000000000000000, 0.000000000000000000, 0.000000000000000000 ) ) ;
#47 = FACE_OUTER_BOUND ( 'NONE', #162, .T. ) ;
#48 = DIRECTION ( 'NONE',  ( -0.000000000000000000, -0.000000000000000000, -1.000000000000000000 ) ) ;
#49 = APPROVAL ( #92, 'NEURÈENÝ' ) ;
#50 = CARTESIAN_POINT ( 'NONE',  ( 0.000000000000000000, 0.000000000000000000, 0.000000000000000000 ) ) ;
#51 = CYLINDRICAL_SURFACE ( 'NONE', #23, 3.500000000000000000 ) ;
#52 = DATE_AND_TIME ( #85, #140 ) ;
#53 = DIRECTION ( 'NONE',  ( -0.000000000000000000, -0.000000000000000000, -1.000000000000000000 ) ) ;
#54 = DATE_AND_TIME ( #6, #214 ) ;
#55 = EDGE_CURVE ( 'NONE', #100, #136, #15, .T. ) ;
#56 = CARTESIAN_POINT ( 'NONE',  ( 1.750000000000000000, 2.143131898507868297E-16, 3.000000000000000000 ) ) ;
#57 = APPROVAL_DATE_TIME ( #52, #49 ) ;
#58 = EDGE_LOOP ( 'NONE', ( #40, #201 ) ) ;
#59 = AXIS2_PLACEMENT_3D ( 'NONE', #10, #88, #170 ) ;
#60 = ORIENTED_EDGE ( 'NONE', *, *, #218, .T. ) ;
#61 = AXIS2_PLACEMENT_3D ( 'NONE', #50, #165, #204 ) ;
#62 = ORIENTED_EDGE ( 'NONE', *, *, #200, .F. ) ;
#63 = DESIGN_CONTEXT ( 'detailed design', #240, 'design' ) ;
#64 = CIRCLE ( 'NONE', #7, 1.750000000000000000 ) ;
#65 = AXIS2_PLACEMENT_3D ( 'NONE', #127, #34, #28 ) ;
#66 = PERSON ( 'NEURÈENÝ', 'NEURÈENÝ', 'NEURÈENÝ', ('NEURÈENÝ'), ('NEURÈENÝ'), ('NEURÈENÝ') ) ;
#67 = CC_DESIGN_APPROVAL ( #241, ( #141 ) ) ;
#68 = APPLICATION_PROTOCOL_DEFINITION ( 'international standard', 'config_control_design', 1994, #233 ) ;
#69 = ORIENTED_EDGE ( 'NONE', *, *, #43, .F. ) ;
#70 = DATE_AND_TIME ( #189, #42 ) ;
#71 = CARTESIAN_POINT ( 'NONE',  ( 0.000000000000000000, 0.000000000000000000, 3.000000000000000000 ) ) ;
#72 =( NAMED_UNIT ( * ) PLANE_ANGLE_UNIT ( ) SI_UNIT ( $, .RADIAN. ) );
#73 = CARTESIAN_POINT ( 'NONE',  ( 3.500000000000000000, 4.286263797015736595E-16, 3.000000000000000000 ) ) ;
#74 = ADVANCED_FACE ( 'NONE', ( #232 ), #166, .T. ) ;
#75 = PLANE ( 'NONE',  #30 ) ;
#76 = CARTESIAN_POINT ( 'NONE',  ( -1.750000000000000000, 0.000000000000000000, 3.000000000000000000 ) ) ;
#77 = DATE_AND_TIME ( #146, #184 ) ;
#78 = ORIENTED_EDGE ( 'NONE', *, *, #245, .F. ) ;
#79 = CC_DESIGN_PERSON_AND_ORGANIZATION_ASSIGNMENT ( #211, #152, ( #3 ) ) ;
#80 = EDGE_LOOP ( 'NONE', ( #253, #213, #158, #78 ) ) ;
#81 = ORIENTED_EDGE ( 'NONE', *, *, #137, .F. ) ;
#82 = AXIS2_PLACEMENT_3D ( 'NONE', #132, #35, #207 ) ;
#83 = PERSON_AND_ORGANIZATION ( #66, #122 ) ;
#84 = CARTESIAN_POINT ( 'NONE',  ( -1.750000000000000000, 0.000000000000000000, 403.0000000000000000 ) ) ;
#85 = CALENDAR_DATE ( 2022, 7, 7 ) ;
#86 = AXIS2_PLACEMENT_3D ( 'NONE', #226, #87, #45 ) ;
#87 = DIRECTION ( 'NONE',  ( 0.000000000000000000, 0.000000000000000000, 1.000000000000000000 ) ) ;
#88 = DIRECTION ( 'NONE',  ( 0.000000000000000000, 0.000000000000000000, 1.000000000000000000 ) ) ;
#89 = PERSON_AND_ORGANIZATION ( #66, #122 ) ;
#90 = CARTESIAN_POINT ( 'NONE',  ( 0.000000000000000000, 0.000000000000000000, 403.0000000000000000 ) ) ;
#91 = CC_DESIGN_DATE_AND_TIME_ASSIGNMENT ( #70, #118, ( #252 ) ) ;
#92 = APPROVAL_STATUS ( 'not_yet_approved' ) ;
#93 = AXIS2_PLACEMENT_3D ( 'NONE', #29, #117, #191 ) ;
#94 = MECHANICAL_CONTEXT ( 'NONE', #233, 'mechanical' ) ;
#95 = CARTESIAN_POINT ( 'NONE',  ( 0.000000000000000000, 0.000000000000000000, 3.000000000000000000 ) ) ;
#96 = SECURITY_CLASSIFICATION_LEVEL ( 'unclassified' ) ;
#97 = APPROVAL_PERSON_ORGANIZATION ( #190, #241, #111 ) ;
#98 = ORIENTED_EDGE ( 'NONE', *, *, #55, .F. ) ;
#99 = ADVANCED_FACE ( 'NONE', ( #205 ), #25, .T. ) ;
#100 = VERTEX_POINT ( 'NONE', #73 ) ;
#101 = VERTEX_POINT ( 'NONE', #13 ) ;
#102 = ORIENTED_EDGE ( 'NONE', *, *, #125, .T. ) ;
#103 = VECTOR ( 'NONE', #48, 1000.000000000000000 ) ;
#104 = APPROVAL ( #248, 'NEURÈENÝ' ) ;
#105 = LOCAL_TIME ( 19, 53, 8.000000000000000000, #192 ) ;
#106 = DIRECTION ( 'NONE',  ( 0.000000000000000000, 0.000000000000000000, 1.000000000000000000 ) ) ;
#107 = PRODUCT_DEFINITION_SHAPE ( 'NONE', 'NONE',  #141 ) ;
#108 = PERSON_AND_ORGANIZATION ( #66, #122 ) ;
#109 = APPLICATION_PROTOCOL_DEFINITION ( 'international standard', 'config_control_design', 1994, #240 ) ;
#110 = DIRECTION ( 'NONE',  ( 1.000000000000000000, 0.000000000000000000, 0.000000000000000000 ) ) ;
#111 = APPROVAL_ROLE ( '' ) ;
#112 = EDGE_CURVE ( 'NONE', #17, #22, #198, .T. ) ;
#113 = CARTESIAN_POINT ( 'NONE',  ( 0.000000000000000000, 0.000000000000000000, 0.000000000000000000 ) ) ;
#114 = FACE_OUTER_BOUND ( 'NONE', #119, .T. ) ;
#115 = ADVANCED_BREP_SHAPE_REPRESENTATION ( '6aa9', ( #159, #61 ), #242 ) ;
#116 =( LENGTH_UNIT ( ) NAMED_UNIT ( * ) SI_UNIT ( .MILLI., .METRE. ) );
#117 = DIRECTION ( 'NONE',  ( 0.000000000000000000, 0.000000000000000000, 1.000000000000000000 ) ) ;
#118 = DATE_TIME_ROLE ( 'classification_date' ) ;
#119 = EDGE_LOOP ( 'NONE', ( #69, #160, #254, #235 ) ) ;
#120 = VERTEX_POINT ( 'NONE', #84 ) ;
#121 = VERTEX_POINT ( 'NONE', #188 ) ;
#122 = ORGANIZATION ( 'NEURÈENÝ', 'NEURÈENÝ', '' ) ;
#123 = AXIS2_PLACEMENT_3D ( 'NONE', #90, #172, #24 ) ;
#124 = AXIS2_PLACEMENT_3D ( 'NONE', #210, #243, #33 ) ;
#125 = EDGE_CURVE ( 'NONE', #38, #100, #44, .T. ) ;
#126 = LINE ( 'NONE', #244, #103 ) ;
#127 = CARTESIAN_POINT ( 'NONE',  ( 0.000000000000000000, 0.000000000000000000, 3.000000000000000000 ) ) ;
#128 = CARTESIAN_POINT ( 'NONE',  ( 3.500000000000000000, 4.286263797015736595E-16, 0.000000000000000000 ) ) ;
#129 = DIRECTION ( 'NONE',  ( 0.000000000000000000, 0.000000000000000000, 1.000000000000000000 ) ) ;
#130 = DIRECTION ( 'NONE',  ( -0.000000000000000000, -0.000000000000000000, -1.000000000000000000 ) ) ;
#131 = DIRECTION ( 'NONE',  ( 1.000000000000000000, 0.000000000000000000, -0.000000000000000000 ) ) ;
#132 = CARTESIAN_POINT ( 'NONE',  ( 0.000000000000000000, 0.000000000000000000, 3.000000000000000000 ) ) ;
#133 = SHAPE_DEFINITION_REPRESENTATION ( #107, #115 ) ;
#134 = EDGE_LOOP ( 'NONE', ( #215, #62, #60, #18 ) ) ;
#135 = PERSON_AND_ORGANIZATION ( #66, #122 ) ;
#136 = VERTEX_POINT ( 'NONE', #128 ) ;
#137 = EDGE_CURVE ( 'NONE', #136, #101, #182, .T. ) ;
#138 = ORIENTED_EDGE ( 'NONE', *, *, #112, .F. ) ;
#139 = ADVANCED_FACE ( 'NONE', ( #227 ), #51, .T. ) ;
#140 = LOCAL_TIME ( 19, 53, 8.000000000000000000, #16 ) ;
#141 = PRODUCT_DEFINITION ( 'NEZNÁMÝ', '', #3, #63 ) ;
#142 = FACE_OUTER_BOUND ( 'NONE', #134, .T. ) ;
#143 = DIRECTION ( 'NONE',  ( 0.000000000000000000, 0.000000000000000000, 1.000000000000000000 ) ) ;
#144 = DIRECTION ( 'NONE',  ( -1.000000000000000000, 0.000000000000000000, 0.000000000000000000 ) ) ;
#145 = CC_DESIGN_PERSON_AND_ORGANIZATION_ASSIGNMENT ( #83, #206, ( #173 ) ) ;
#146 = CALENDAR_DATE ( 2022, 7, 7 ) ;
#147 = CARTESIAN_POINT ( 'NONE',  ( 0.000000000000000000, 0.000000000000000000, 3.000000000000000000 ) ) ;
#148 = DIRECTION ( 'NONE',  ( -0.000000000000000000, -0.000000000000000000, -1.000000000000000000 ) ) ;
#149 = CIRCLE ( 'NONE', #82, 1.750000000000000000 ) ;
#150 = LINE ( 'NONE', #31, #37 ) ;
#151 = DIRECTION ( 'NONE',  ( -0.000000000000000000, -0.000000000000000000, -1.000000000000000000 ) ) ;
#152 = PERSON_AND_ORGANIZATION_ROLE ( 'creator' ) ;
#153 = APPROVAL_PERSON_ORGANIZATION ( #89, #104, #225 ) ;
#154 = DIRECTION ( 'NONE',  ( 0.000000000000000000, 0.000000000000000000, 1.000000000000000000 ) ) ;
#155 = CARTESIAN_POINT ( 'NONE',  ( 3.500000000000000000, 4.286263797015736595E-16, 3.000000000000000000 ) ) ;
#156 = APPROVAL_DATE_TIME ( #54, #104 ) ;
#157 = ADVANCED_FACE ( 'NONE', ( #114 ), #194, .T. ) ;
#158 = ORIENTED_EDGE ( 'NONE', *, *, #137, .T. ) ;
#159 = MANIFOLD_SOLID_BREP ( 'Pøidat vysunutím3', #203 ) ;
#160 = ORIENTED_EDGE ( 'NONE', *, *, #20, .T. ) ;
#161 = PRODUCT_RELATED_PRODUCT_CATEGORY ( 'detail', '', ( #173 ) ) ;
#162 = EDGE_LOOP ( 'NONE', ( #102, #255 ) ) ;
#163 = CC_DESIGN_PERSON_AND_ORGANIZATION_ASSIGNMENT ( #135, #176, ( #252 ) ) ;
#164 = AXIS2_PLACEMENT_3D ( 'NONE', #222, #53, #46 ) ;
#165 = DIRECTION ( 'NONE',  ( 0.000000000000000000, 0.000000000000000000, 1.000000000000000000 ) ) ;
#166 = PLANE ( 'NONE',  #124 ) ;
#167 = PERSON_AND_ORGANIZATION ( #66, #122 ) ;
#168 = AXIS2_PLACEMENT_3D ( 'NONE', #147, #154, #131 ) ;
#169 = PLANE ( 'NONE',  #168 ) ;
#170 = DIRECTION ( 'NONE',  ( 1.000000000000000000, 0.000000000000000000, 0.000000000000000000 ) ) ;
#171 = DATE_AND_TIME ( #197, #105 ) ;
#172 = DIRECTION ( 'NONE',  ( -0.000000000000000000, -0.000000000000000000, -1.000000000000000000 ) ) ;
#173 = PRODUCT ( '6aa9', '6aa9', '', ( #94 ) ) ;
#174 = PERSON_AND_ORGANIZATION ( #66, #122 ) ;
#175 = FACE_BOUND ( 'NONE', #216, .T. ) ;
#176 = PERSON_AND_ORGANIZATION_ROLE ( 'classification_officer' ) ;
#177 = ADVANCED_FACE ( 'NONE', ( #175, #47 ), #169, .T. ) ;
#178 = EDGE_LOOP ( 'NONE', ( #181, #81 ) ) ;
#179 = ORIENTED_EDGE ( 'NONE', *, *, #239, .T. ) ;
#180 = CIRCLE ( 'NONE', #65, 3.500000000000000000 ) ;
#181 = ORIENTED_EDGE ( 'NONE', *, *, #239, .F. ) ;
#182 = CIRCLE ( 'NONE', #59, 3.500000000000000000 ) ;
#183 = ADVANCED_FACE ( 'NONE', ( #249 ), #75, .F. ) ;
#184 = LOCAL_TIME ( 19, 53, 8.000000000000000000, #251 ) ;
#185 = CIRCLE ( 'NONE', #93, 1.750000000000000000 ) ;
#186 = UNCERTAINTY_MEASURE_WITH_UNIT (LENGTH_MEASURE( 1.000000000000000082E-05 ), #116, 'distance_accuracy_value', 'NONE');
#187 = DIRECTION ( 'NONE',  ( -0.000000000000000000, -0.000000000000000000, -1.000000000000000000 ) ) ;
#188 = CARTESIAN_POINT ( 'NONE',  ( 1.750000000000000000, 2.143131898507868297E-16, 403.0000000000000000 ) ) ;
#189 = CALENDAR_DATE ( 2022, 7, 7 ) ;
#190 = PERSON_AND_ORGANIZATION ( #66, #122 ) ;
#191 = DIRECTION ( 'NONE',  ( 1.000000000000000000, 0.000000000000000000, 0.000000000000000000 ) ) ;
#192 = COORDINATED_UNIVERSAL_TIME_OFFSET ( 1, 0, .AHEAD. ) ;
#193 = CC_DESIGN_APPROVAL ( #49, ( #3 ) ) ;
#194 = CYLINDRICAL_SURFACE ( 'NONE', #123, 1.750000000000000000 ) ;
#195 =( NAMED_UNIT ( * ) SI_UNIT ( $, .STERADIAN. ) SOLID_ANGLE_UNIT ( ) );
#196 = CARTESIAN_POINT ( 'NONE',  ( -3.500000000000000000, 0.000000000000000000, 3.000000000000000000 ) ) ;
#197 = CALENDAR_DATE ( 2022, 7, 7 ) ;
#198 = CIRCLE ( 'NONE', #236, 1.750000000000000000 ) ;
#199 = APPROVAL_DATE_TIME ( #77, #241 ) ;
#200 = EDGE_CURVE ( 'NONE', #120, #121, #64, .T. ) ;
#201 = ORIENTED_EDGE ( 'NONE', *, *, #43, .T. ) ;
#202 = CC_DESIGN_PERSON_AND_ORGANIZATION_ASSIGNMENT ( #174, #231, ( #3 ) ) ;
#203 = CLOSED_SHELL ( 'NONE', ( #157, #139, #99, #177, #183, #27, #74 ) ) ;
#204 = DIRECTION ( 'NONE',  ( 1.000000000000000000, 0.000000000000000000, 0.000000000000000000 ) ) ;
#205 = FACE_OUTER_BOUND ( 'NONE', #217, .T. ) ;
#206 = PERSON_AND_ORGANIZATION_ROLE ( 'design_owner' ) ;
#207 = DIRECTION ( 'NONE',  ( 1.000000000000000000, 0.000000000000000000, 0.000000000000000000 ) ) ;
#208 = DIRECTION ( 'NONE',  ( -1.000000000000000000, 0.000000000000000000, 0.000000000000000000 ) ) ;
#209 = CARTESIAN_POINT ( 'NONE',  ( 0.000000000000000000, 0.000000000000000000, 403.0000000000000000 ) ) ;
#210 = CARTESIAN_POINT ( 'NONE',  ( 0.000000000000000000, 0.000000000000000000, 403.0000000000000000 ) ) ;
#211 = PERSON_AND_ORGANIZATION ( #66, #122 ) ;
#212 = LINE ( 'NONE', #223, #21 ) ;
#213 = ORIENTED_EDGE ( 'NONE', *, *, #55, .T. ) ;
#214 = LOCAL_TIME ( 19, 53, 8.000000000000000000, #246 ) ;
#215 = ORIENTED_EDGE ( 'NONE', *, *, #20, .F. ) ;
#216 = EDGE_LOOP ( 'NONE', ( #234, #138 ) ) ;
#217 = EDGE_LOOP ( 'NONE', ( #98, #19, #36, #179 ) ) ;
#218 = EDGE_CURVE ( 'NONE', #120, #22, #212, .T. ) ;
#219 = AXIS2_PLACEMENT_3D ( 'NONE', #250, #224, #5 ) ;
#220 = EDGE_CURVE ( 'NONE', #100, #38, #180, .T. ) ;
#221 = APPROVAL_PERSON_ORGANIZATION ( #167, #49, #26 ) ;
#222 = CARTESIAN_POINT ( 'NONE',  ( 0.000000000000000000, 0.000000000000000000, 403.0000000000000000 ) ) ;
#223 = CARTESIAN_POINT ( 'NONE',  ( -1.750000000000000000, 0.000000000000000000, 403.0000000000000000 ) ) ;
#224 = DIRECTION ( 'NONE',  ( 0.000000000000000000, 0.000000000000000000, 1.000000000000000000 ) ) ;
#225 = APPROVAL_ROLE ( '' ) ;
#226 = CARTESIAN_POINT ( 'NONE',  ( 0.000000000000000000, 0.000000000000000000, 0.000000000000000000 ) ) ;
#227 = FACE_OUTER_BOUND ( 'NONE', #80, .T. ) ;
#228 = COORDINATED_UNIVERSAL_TIME_OFFSET ( 1, 0, .AHEAD. ) ;
#229 = DIRECTION ( 'NONE',  ( -0.000000000000000000, -0.000000000000000000, -1.000000000000000000 ) ) ;
#230 = CYLINDRICAL_SURFACE ( 'NONE', #164, 1.750000000000000000 ) ;
#231 = PERSON_AND_ORGANIZATION_ROLE ( 'design_supplier' ) ;
#232 = FACE_OUTER_BOUND ( 'NONE', #58, .T. ) ;
#233 = APPLICATION_CONTEXT ( 'configuration controlled 3d designs of mechanical parts and assemblies' ) ;
#234 = ORIENTED_EDGE ( 'NONE', *, *, #39, .F. ) ;
#235 = ORIENTED_EDGE ( 'NONE', *, *, #218, .F. ) ;
#236 = AXIS2_PLACEMENT_3D ( 'NONE', #71, #106, #110 ) ;
#237 = VECTOR ( 'NONE', #148, 1000.000000000000000 ) ;
#238 = CC_DESIGN_APPROVAL ( #104, ( #252 ) ) ;
#239 = EDGE_CURVE ( 'NONE', #101, #136, #9, .T. ) ;
#240 = APPLICATION_CONTEXT ( 'configuration controlled 3d designs of mechanical parts and assemblies' ) ;
#241 = APPROVAL ( #8, 'NEURÈENÝ' ) ;
#242 =( GEOMETRIC_REPRESENTATION_CONTEXT ( 3 ) GLOBAL_UNCERTAINTY_ASSIGNED_CONTEXT ( ( #186 ) ) GLOBAL_UNIT_ASSIGNED_CONTEXT ( ( #116, #72, #195 ) ) REPRESENTATION_CONTEXT ( 'NONE', 'WORKASPACE' ) );
#243 = DIRECTION ( 'NONE',  ( 0.000000000000000000, 0.000000000000000000, 1.000000000000000000 ) ) ;
#244 = CARTESIAN_POINT ( 'NONE',  ( 1.750000000000000000, 2.143131898507868297E-16, 403.0000000000000000 ) ) ;
#245 = EDGE_CURVE ( 'NONE', #38, #101, #150, .T. ) ;
#246 = COORDINATED_UNIVERSAL_TIME_OFFSET ( 1, 0, .AHEAD. ) ;
#247 = CARTESIAN_POINT ( 'NONE',  ( 0.000000000000000000, 0.000000000000000000, 3.000000000000000000 ) ) ;
#248 = APPROVAL_STATUS ( 'not_yet_approved' ) ;
#249 = FACE_OUTER_BOUND ( 'NONE', #178, .T. ) ;
#250 = CARTESIAN_POINT ( 'NONE',  ( 0.000000000000000000, 0.000000000000000000, 3.000000000000000000 ) ) ;
#251 = COORDINATED_UNIVERSAL_TIME_OFFSET ( 1, 0, .AHEAD. ) ;
#252 = SECURITY_CLASSIFICATION ( '', '', #96 ) ;
#253 = ORIENTED_EDGE ( 'NONE', *, *, #220, .F. ) ;
#254 = ORIENTED_EDGE ( 'NONE', *, *, #112, .T. ) ;
#255 = ORIENTED_EDGE ( 'NONE', *, *, #220, .T. ) ;
ENDSEC;
END-ISO-10303-21;
