ISO-10303-21;
HEADER;
FILE_DESCRIPTION (( 'STEP AP203' ),
    '1' );
FILE_NAME ('8250.STEP',
    '2023-02-13T16:42:24',
    ( '' ),
    ( '' ),
    'SwSTEP 2.0',
    'SolidWorks 2019',
    '' );
FILE_SCHEMA (( 'CONFIG_CONTROL_DESIGN' ));
ENDSEC;

DATA;
#1 =( NAMED_UNIT ( * ) SI_UNIT ( $, .STERADIAN. ) SOLID_ANGLE_UNIT ( ) );
#2 = CARTESIAN_POINT ( 'NONE',  ( 2.000000000000000000, 2.449293598294706414E-16, 0.000000000000000000 ) ) ;
#3 = EDGE_LOOP ( 'NONE', ( #9, #47, #28, #194 ) ) ;
#4 = AXIS2_PLACEMENT_3D ( 'NONE', #147, #40, #87 ) ;
#5 = AXIS2_PLACEMENT_3D ( 'NONE', #159, #175, #120 ) ;
#6 = EDGE_CURVE ( 'NONE', #171, #108, #103, .T. ) ;
#7 = CARTESIAN_POINT ( 'NONE',  ( -1.100000000000000089, 0.000000000000000000, 125.0000000000000000 ) ) ;
#8 = DIRECTION ( 'NONE',  ( 0.000000000000000000, 0.000000000000000000, 1.000000000000000000 ) ) ;
#9 = ORIENTED_EDGE ( 'NONE', *, *, #27, .F. ) ;
#10 = CC_DESIGN_APPROVAL ( #59, ( #182 ) ) ;
#11 = ORIENTED_EDGE ( 'NONE', *, *, #68, .T. ) ;
#12 = EDGE_CURVE ( 'NONE', #240, #108, #169, .T. ) ;
#13 = VERTEX_POINT ( 'NONE', #225 ) ;
#14 = APPROVAL_STATUS ( 'not_yet_approved' ) ;
#15 = DIRECTION ( 'NONE',  ( 1.000000000000000000, 0.000000000000000000, 0.000000000000000000 ) ) ;
#16 = DIRECTION ( 'NONE',  ( 1.000000000000000000, 0.000000000000000000, -0.000000000000000000 ) ) ;
#17 = DATE_AND_TIME ( #233, #24 ) ;
#18 = DIRECTION ( 'NONE',  ( 1.000000000000000000, 0.000000000000000000, -0.000000000000000000 ) ) ;
#19 = APPROVAL_ROLE ( '' ) ;
#20 = CARTESIAN_POINT ( 'NONE',  ( -2.000000000000000000, 0.000000000000000000, 2.000000000000000000 ) ) ;
#21 = DIRECTION ( 'NONE',  ( 1.000000000000000000, 0.000000000000000000, 0.000000000000000000 ) ) ;
#22 = CARTESIAN_POINT ( 'NONE',  ( 0.000000000000000000, 0.000000000000000000, 2.000000000000000000 ) ) ;
#23 = VECTOR ( 'NONE', #214, 1000.000000000000000 ) ;
#24 = LOCAL_TIME ( 17, 42, 24.00000000000000000, #161 ) ;
#25 = CARTESIAN_POINT ( 'NONE',  ( 0.000000000000000000, 0.000000000000000000, 0.000000000000000000 ) ) ;
#26 = PERSON_AND_ORGANIZATION ( #88, #239 ) ;
#27 = EDGE_CURVE ( 'NONE', #151, #171, #33, .T. ) ;
#28 = ORIENTED_EDGE ( 'NONE', *, *, #12, .T. ) ;
#29 = VERTEX_POINT ( 'NONE', #172 ) ;
#30 = DATE_TIME_ROLE ( 'creation_date' ) ;
#31 = FACE_OUTER_BOUND ( 'NONE', #122, .T. ) ;
#32 = PERSON_AND_ORGANIZATION ( #88, #239 ) ;
#33 = LINE ( 'NONE', #209, #83 ) ;
#34 = CARTESIAN_POINT ( 'NONE',  ( 0.000000000000000000, 0.000000000000000000, 2.000000000000000000 ) ) ;
#35 = PERSON_AND_ORGANIZATION ( #88, #239 ) ;
#36 = PERSON_AND_ORGANIZATION ( #88, #239 ) ;
#37 =( LENGTH_UNIT ( ) NAMED_UNIT ( * ) SI_UNIT ( .MILLI., .METRE. ) );
#38 = CIRCLE ( 'NONE', #155, 2.000000000000000000 ) ;
#39 = VECTOR ( 'NONE', #197, 1000.000000000000000 ) ;
#40 = DIRECTION ( 'NONE',  ( -0.000000000000000000, -0.000000000000000000, -1.000000000000000000 ) ) ;
#41 = CARTESIAN_POINT ( 'NONE',  ( 2.000000000000000000, 2.449293598294706414E-16, 2.000000000000000000 ) ) ;
#42 = AXIS2_PLACEMENT_3D ( 'NONE', #206, #193, #90 ) ;
#43 = ORIENTED_EDGE ( 'NONE', *, *, #179, .F. ) ;
#44 = EDGE_CURVE ( 'NONE', #148, #29, #198, .T. ) ;
#45 = EDGE_LOOP ( 'NONE', ( #129, #241 ) ) ;
#46 = FACE_OUTER_BOUND ( 'NONE', #109, .T. ) ;
#47 = ORIENTED_EDGE ( 'NONE', *, *, #131, .F. ) ;
#48 = CYLINDRICAL_SURFACE ( 'NONE', #254, 2.000000000000000000 ) ;
#49 = CLOSED_SHELL ( 'NONE', ( #236, #75, #146, #96, #140, #152, #97 ) ) ;
#50 = DATE_TIME_ROLE ( 'classification_date' ) ;
#51 = CC_DESIGN_APPROVAL ( #158, ( #235 ) ) ;
#52 = PLANE ( 'NONE',  #150 ) ;
#53 = CC_DESIGN_DATE_AND_TIME_ASSIGNMENT ( #17, #50, ( #182 ) ) ;
#54 = CARTESIAN_POINT ( 'NONE',  ( 0.000000000000000000, 0.000000000000000000, 0.000000000000000000 ) ) ;
#55 = DIRECTION ( 'NONE',  ( 0.000000000000000000, 0.000000000000000000, 1.000000000000000000 ) ) ;
#56 = MECHANICAL_CONTEXT ( 'NONE', #145, 'mechanical' ) ;
#57 = DATE_AND_TIME ( #253, #127 ) ;
#58 = AXIS2_PLACEMENT_3D ( 'NONE', #54, #216, #114 ) ;
#59 = APPROVAL ( #78, 'NEURÈENÝ' ) ;
#60 = FACE_OUTER_BOUND ( 'NONE', #3, .T. ) ;
#61 = AXIS2_PLACEMENT_3D ( 'NONE', #202, #100, #21 ) ;
#62 = CC_DESIGN_PERSON_AND_ORGANIZATION_ASSIGNMENT ( #35, #136, ( #255 ) ) ;
#63 = MANIFOLD_SOLID_BREP ( 'Pøidat vysunutím3', #49 ) ;
#64 = PLANE ( 'NONE',  #250 ) ;
#65 = EDGE_LOOP ( 'NONE', ( #101, #190, #11, #125 ) ) ;
#66 = UNCERTAINTY_MEASURE_WITH_UNIT (LENGTH_MEASURE( 1.000000000000000082E-05 ), #37, 'distance_accuracy_value', 'NONE');
#67 = CARTESIAN_POINT ( 'NONE',  ( 0.000000000000000000, 0.000000000000000000, 2.000000000000000000 ) ) ;
#68 = EDGE_CURVE ( 'NONE', #148, #13, #207, .T. ) ;
#69 = CIRCLE ( 'NONE', #184, 2.000000000000000000 ) ;
#70 = ORIENTED_EDGE ( 'NONE', *, *, #215, .T. ) ;
#71 = EDGE_LOOP ( 'NONE', ( #243, #70, #238, #224 ) ) ;
#72 = DIRECTION ( 'NONE',  ( 1.000000000000000000, 0.000000000000000000, 0.000000000000000000 ) ) ;
#73 = CIRCLE ( 'NONE', #141, 2.000000000000000000 ) ;
#74 = COORDINATED_UNIVERSAL_TIME_OFFSET ( 1, 0, .AHEAD. ) ;
#75 = ADVANCED_FACE ( 'NONE', ( #31 ), #48, .T. ) ;
#76 = DATE_AND_TIME ( #149, #105 ) ;
#77 = PERSON_AND_ORGANIZATION ( #88, #239 ) ;
#78 = APPROVAL_STATUS ( 'not_yet_approved' ) ;
#79 = CIRCLE ( 'NONE', #181, 1.100000000000000089 ) ;
#80 = DIRECTION ( 'NONE',  ( 1.000000000000000000, 0.000000000000000000, 0.000000000000000000 ) ) ;
#81 = CC_DESIGN_PERSON_AND_ORGANIZATION_ASSIGNMENT ( #32, #95, ( #182 ) ) ;
#82 = DIRECTION ( 'NONE',  ( 1.000000000000000000, 0.000000000000000000, 0.000000000000000000 ) ) ;
#83 = VECTOR ( 'NONE', #135, 1000.000000000000000 ) ;
#84 = AXIS2_PLACEMENT_3D ( 'NONE', #249, #139, #115 ) ;
#85 = DESIGN_CONTEXT ( 'detailed design', #164, 'design' ) ;
#86 = CARTESIAN_POINT ( 'NONE',  ( -2.000000000000000000, 0.000000000000000000, 0.000000000000000000 ) ) ;
#87 = DIRECTION ( 'NONE',  ( -1.000000000000000000, 0.000000000000000000, 0.000000000000000000 ) ) ;
#88 = PERSON ( 'NEURÈENÝ', 'NEURÈENÝ', 'NEURÈENÝ', ('NEURÈENÝ'), ('NEURÈENÝ'), ('NEURÈENÝ') ) ;
#89 = EDGE_LOOP ( 'NONE', ( #132, #92 ) ) ;
#90 = DIRECTION ( 'NONE',  ( 1.000000000000000000, 0.000000000000000000, 0.000000000000000000 ) ) ;
#91 = PERSON_AND_ORGANIZATION_ROLE ( 'design_supplier' ) ;
#92 = ORIENTED_EDGE ( 'NONE', *, *, #168, .T. ) ;
#93 = FACE_OUTER_BOUND ( 'NONE', #71, .T. ) ;
#94 = FACE_OUTER_BOUND ( 'NONE', #89, .T. ) ;
#95 = PERSON_AND_ORGANIZATION_ROLE ( 'classification_officer' ) ;
#96 = ADVANCED_FACE ( 'NONE', ( #156, #46 ), #52, .T. ) ;
#97 = ADVANCED_FACE ( 'NONE', ( #94 ), #246, .T. ) ;
#98 = EDGE_CURVE ( 'NONE', #166, #13, #79, .T. ) ;
#99 = PRODUCT_DEFINITION_SHAPE ( 'NONE', 'NONE',  #235 ) ;
#100 = DIRECTION ( 'NONE',  ( 0.000000000000000000, 0.000000000000000000, 1.000000000000000000 ) ) ;
#101 = ORIENTED_EDGE ( 'NONE', *, *, #215, .F. ) ;
#102 = CARTESIAN_POINT ( 'NONE',  ( 0.000000000000000000, 0.000000000000000000, 2.000000000000000000 ) ) ;
#103 = CIRCLE ( 'NONE', #42, 2.000000000000000000 ) ;
#104 = EDGE_LOOP ( 'NONE', ( #154, #231 ) ) ;
#105 = LOCAL_TIME ( 17, 42, 24.00000000000000000, #74 ) ;
#106 = APPROVAL ( #14, 'NEURÈENÝ' ) ;
#107 = FACE_OUTER_BOUND ( 'NONE', #65, .T. ) ;
#108 = VERTEX_POINT ( 'NONE', #86 ) ;
#109 = EDGE_LOOP ( 'NONE', ( #226, #130 ) ) ;
#110 = ORIENTED_EDGE ( 'NONE', *, *, #12, .F. ) ;
#111 = APPROVAL_DATE_TIME ( #242, #59 ) ;
#112 =( NAMED_UNIT ( * ) PLANE_ANGLE_UNIT ( ) SI_UNIT ( $, .RADIAN. ) );
#113 = COORDINATED_UNIVERSAL_TIME_OFFSET ( 1, 0, .AHEAD. ) ;
#114 = DIRECTION ( 'NONE',  ( 1.000000000000000000, 0.000000000000000000, 0.000000000000000000 ) ) ;
#115 = DIRECTION ( 'NONE',  ( 1.000000000000000000, 0.000000000000000000, 0.000000000000000000 ) ) ;
#116 = DIRECTION ( 'NONE',  ( -1.000000000000000000, 0.000000000000000000, 0.000000000000000000 ) ) ;
#117 = APPROVAL_STATUS ( 'not_yet_approved' ) ;
#118 = COORDINATED_UNIVERSAL_TIME_OFFSET ( 1, 0, .AHEAD. ) ;
#119 = DIRECTION ( 'NONE',  ( -0.000000000000000000, -0.000000000000000000, -1.000000000000000000 ) ) ;
#120 = DIRECTION ( 'NONE',  ( -1.000000000000000000, 0.000000000000000000, 0.000000000000000000 ) ) ;
#121 = LOCAL_TIME ( 17, 42, 24.00000000000000000, #113 ) ;
#122 = EDGE_LOOP ( 'NONE', ( #43, #187, #205, #110 ) ) ;
#123 = CARTESIAN_POINT ( 'NONE',  ( 1.100000000000000089, 1.347111479062088503E-16, 2.000000000000000000 ) ) ;
#124 = DIRECTION ( 'NONE',  ( 1.000000000000000000, 0.000000000000000000, 0.000000000000000000 ) ) ;
#125 = ORIENTED_EDGE ( 'NONE', *, *, #210, .T. ) ;
#126 = CARTESIAN_POINT ( 'NONE',  ( 0.000000000000000000, 0.000000000000000000, 2.000000000000000000 ) ) ;
#127 = LOCAL_TIME ( 17, 42, 24.00000000000000000, #118 ) ;
#128 = DIRECTION ( 'NONE',  ( -0.000000000000000000, -0.000000000000000000, -1.000000000000000000 ) ) ;
#129 = ORIENTED_EDGE ( 'NONE', *, *, #201, .F. ) ;
#130 = ORIENTED_EDGE ( 'NONE', *, *, #179, .T. ) ;
#131 = EDGE_CURVE ( 'NONE', #240, #151, #69, .T. ) ;
#132 = ORIENTED_EDGE ( 'NONE', *, *, #44, .T. ) ;
#133 = PERSON_AND_ORGANIZATION ( #88, #239 ) ;
#134 = DATE_AND_TIME ( #229, #142 ) ;
#135 = DIRECTION ( 'NONE',  ( -0.000000000000000000, -0.000000000000000000, -1.000000000000000000 ) ) ;
#136 = PERSON_AND_ORGANIZATION_ROLE ( 'creator' ) ;
#137 = ADVANCED_BREP_SHAPE_REPRESENTATION ( '8250', ( #63, #58 ), #185 ) ;
#138 = APPROVAL_PERSON_ORGANIZATION ( #196, #106, #173 ) ;
#139 = DIRECTION ( 'NONE',  ( 0.000000000000000000, 0.000000000000000000, 1.000000000000000000 ) ) ;
#140 = ADVANCED_FACE ( 'NONE', ( #237 ), #64, .F. ) ;
#141 = AXIS2_PLACEMENT_3D ( 'NONE', #25, #144, #15 ) ;
#142 = LOCAL_TIME ( 17, 42, 24.00000000000000000, #191 ) ;
#143 = CYLINDRICAL_SURFACE ( 'NONE', #230, 2.000000000000000000 ) ;
#144 = DIRECTION ( 'NONE',  ( 0.000000000000000000, 0.000000000000000000, 1.000000000000000000 ) ) ;
#145 = APPLICATION_CONTEXT ( 'configuration controlled 3d designs of mechanical parts and assemblies' ) ;
#146 = ADVANCED_FACE ( 'NONE', ( #60 ), #143, .T. ) ;
#147 = CARTESIAN_POINT ( 'NONE',  ( 0.000000000000000000, 0.000000000000000000, 125.0000000000000000 ) ) ;
#148 = VERTEX_POINT ( 'NONE', #7 ) ;
#149 = CALENDAR_DATE ( 2023, 13, 2 ) ;
#150 = AXIS2_PLACEMENT_3D ( 'NONE', #160, #211, #16 ) ;
#151 = VERTEX_POINT ( 'NONE', #41 ) ;
#152 = ADVANCED_FACE ( 'NONE', ( #107 ), #221, .T. ) ;
#153 = PERSON_AND_ORGANIZATION_ROLE ( 'creator' ) ;
#154 = ORIENTED_EDGE ( 'NONE', *, *, #210, .F. ) ;
#155 = AXIS2_PLACEMENT_3D ( 'NONE', #22, #204, #82 ) ;
#156 = FACE_BOUND ( 'NONE', #104, .T. ) ;
#157 = CC_DESIGN_APPROVAL ( #106, ( #255 ) ) ;
#158 = APPROVAL ( #117, 'NEURÈENÝ' ) ;
#159 = CARTESIAN_POINT ( 'NONE',  ( 0.000000000000000000, 0.000000000000000000, 125.0000000000000000 ) ) ;
#160 = CARTESIAN_POINT ( 'NONE',  ( 0.000000000000000000, 0.000000000000000000, 2.000000000000000000 ) ) ;
#161 = COORDINATED_UNIVERSAL_TIME_OFFSET ( 1, 0, .AHEAD. ) ;
#162 = AXIS2_PLACEMENT_3D ( 'NONE', #227, #55, #72 ) ;
#163 = APPROVAL_DATE_TIME ( #57, #158 ) ;
#164 = APPLICATION_CONTEXT ( 'configuration controlled 3d designs of mechanical parts and assemblies' ) ;
#165 = DIRECTION ( 'NONE',  ( 0.000000000000000000, 0.000000000000000000, 1.000000000000000000 ) ) ;
#166 = VERTEX_POINT ( 'NONE', #123 ) ;
#167 = APPROVAL_PERSON_ORGANIZATION ( #133, #59, #212 ) ;
#168 = EDGE_CURVE ( 'NONE', #29, #148, #244, .T. ) ;
#169 = LINE ( 'NONE', #208, #39 ) ;
#170 = CALENDAR_DATE ( 2023, 13, 2 ) ;
#171 = VERTEX_POINT ( 'NONE', #2 ) ;
#172 = CARTESIAN_POINT ( 'NONE',  ( 1.100000000000000089, 1.347111479062088503E-16, 125.0000000000000000 ) ) ;
#173 = APPROVAL_ROLE ( '' ) ;
#174 = CIRCLE ( 'NONE', #84, 1.100000000000000089 ) ;
#175 = DIRECTION ( 'NONE',  ( -0.000000000000000000, -0.000000000000000000, -1.000000000000000000 ) ) ;
#176 = SHAPE_DEFINITION_REPRESENTATION ( #99, #137 ) ;
#177 = PRODUCT ( '8250', '8250', '', ( #56 ) ) ;
#178 = CARTESIAN_POINT ( 'NONE',  ( 0.000000000000000000, 0.000000000000000000, 125.0000000000000000 ) ) ;
#179 = EDGE_CURVE ( 'NONE', #151, #240, #38, .T. ) ;
#180 = PERSON_AND_ORGANIZATION ( #88, #239 ) ;
#181 = AXIS2_PLACEMENT_3D ( 'NONE', #102, #8, #124 ) ;
#182 = SECURITY_CLASSIFICATION ( '', '', #228 ) ;
#183 = CARTESIAN_POINT ( 'NONE',  ( 0.000000000000000000, 0.000000000000000000, 0.000000000000000000 ) ) ;
#184 = AXIS2_PLACEMENT_3D ( 'NONE', #126, #189, #80 ) ;
#185 =( GEOMETRIC_REPRESENTATION_CONTEXT ( 3 ) GLOBAL_UNCERTAINTY_ASSIGNED_CONTEXT ( ( #66 ) ) GLOBAL_UNIT_ASSIGNED_CONTEXT ( ( #37, #112, #1 ) ) REPRESENTATION_CONTEXT ( 'NONE', 'WORKASPACE' ) );
#186 = DIRECTION ( 'NONE',  ( 1.000000000000000000, 0.000000000000000000, -0.000000000000000000 ) ) ;
#187 = ORIENTED_EDGE ( 'NONE', *, *, #27, .T. ) ;
#188 = CC_DESIGN_DATE_AND_TIME_ASSIGNMENT ( #134, #30, ( #235 ) ) ;
#189 = DIRECTION ( 'NONE',  ( 0.000000000000000000, 0.000000000000000000, 1.000000000000000000 ) ) ;
#190 = ORIENTED_EDGE ( 'NONE', *, *, #44, .F. ) ;
#191 = COORDINATED_UNIVERSAL_TIME_OFFSET ( 1, 0, .AHEAD. ) ;
#192 = AXIS2_PLACEMENT_3D ( 'NONE', #178, #199, #18 ) ;
#193 = DIRECTION ( 'NONE',  ( 0.000000000000000000, 0.000000000000000000, 1.000000000000000000 ) ) ;
#194 = ORIENTED_EDGE ( 'NONE', *, *, #201, .T. ) ;
#195 = CARTESIAN_POINT ( 'NONE',  ( -1.100000000000000089, 0.000000000000000000, 125.0000000000000000 ) ) ;
#196 = PERSON_AND_ORGANIZATION ( #88, #239 ) ;
#197 = DIRECTION ( 'NONE',  ( -0.000000000000000000, -0.000000000000000000, -1.000000000000000000 ) ) ;
#198 = CIRCLE ( 'NONE', #162, 1.100000000000000089 ) ;
#199 = DIRECTION ( 'NONE',  ( 0.000000000000000000, 0.000000000000000000, 1.000000000000000000 ) ) ;
#200 = VECTOR ( 'NONE', #119, 1000.000000000000000 ) ;
#201 = EDGE_CURVE ( 'NONE', #108, #171, #73, .T. ) ;
#202 = CARTESIAN_POINT ( 'NONE',  ( 0.000000000000000000, 0.000000000000000000, 125.0000000000000000 ) ) ;
#203 = APPROVAL_PERSON_ORGANIZATION ( #36, #158, #19 ) ;
#204 = DIRECTION ( 'NONE',  ( 0.000000000000000000, 0.000000000000000000, 1.000000000000000000 ) ) ;
#205 = ORIENTED_EDGE ( 'NONE', *, *, #6, .T. ) ;
#206 = CARTESIAN_POINT ( 'NONE',  ( 0.000000000000000000, 0.000000000000000000, 0.000000000000000000 ) ) ;
#207 = LINE ( 'NONE', #195, #23 ) ;
#208 = CARTESIAN_POINT ( 'NONE',  ( -2.000000000000000000, 0.000000000000000000, 2.000000000000000000 ) ) ;
#209 = CARTESIAN_POINT ( 'NONE',  ( 2.000000000000000000, 2.449293598294706414E-16, 2.000000000000000000 ) ) ;
#210 = EDGE_CURVE ( 'NONE', #13, #166, #174, .T. ) ;
#211 = DIRECTION ( 'NONE',  ( 0.000000000000000000, 0.000000000000000000, 1.000000000000000000 ) ) ;
#212 = APPROVAL_ROLE ( '' ) ;
#213 = CC_DESIGN_SECURITY_CLASSIFICATION ( #182, ( #255 ) ) ;
#214 = DIRECTION ( 'NONE',  ( -0.000000000000000000, -0.000000000000000000, -1.000000000000000000 ) ) ;
#215 = EDGE_CURVE ( 'NONE', #29, #166, #251, .T. ) ;
#216 = DIRECTION ( 'NONE',  ( 0.000000000000000000, 0.000000000000000000, 1.000000000000000000 ) ) ;
#217 = APPLICATION_PROTOCOL_DEFINITION ( 'international standard', 'config_control_design', 1994, #164 ) ;
#218 = APPLICATION_PROTOCOL_DEFINITION ( 'international standard', 'config_control_design', 1994, #145 ) ;
#219 = CC_DESIGN_PERSON_AND_ORGANIZATION_ASSIGNMENT ( #180, #247, ( #177 ) ) ;
#220 = PRODUCT_RELATED_PRODUCT_CATEGORY ( 'detail', '', ( #177 ) ) ;
#221 = CYLINDRICAL_SURFACE ( 'NONE', #4, 1.100000000000000089 ) ;
#222 = DIRECTION ( 'NONE',  ( -1.000000000000000000, 0.000000000000000000, 0.000000000000000000 ) ) ;
#223 = CC_DESIGN_PERSON_AND_ORGANIZATION_ASSIGNMENT ( #26, #153, ( #235 ) ) ;
#224 = ORIENTED_EDGE ( 'NONE', *, *, #68, .F. ) ;
#225 = CARTESIAN_POINT ( 'NONE',  ( -1.100000000000000089, 0.000000000000000000, 2.000000000000000000 ) ) ;
#226 = ORIENTED_EDGE ( 'NONE', *, *, #131, .T. ) ;
#227 = CARTESIAN_POINT ( 'NONE',  ( 0.000000000000000000, 0.000000000000000000, 125.0000000000000000 ) ) ;
#228 = SECURITY_CLASSIFICATION_LEVEL ( 'unclassified' ) ;
#229 = CALENDAR_DATE ( 2023, 13, 2 ) ;
#230 = AXIS2_PLACEMENT_3D ( 'NONE', #67, #128, #222 ) ;
#231 = ORIENTED_EDGE ( 'NONE', *, *, #98, .F. ) ;
#232 = DIRECTION ( 'NONE',  ( -0.000000000000000000, -0.000000000000000000, -1.000000000000000000 ) ) ;
#233 = CALENDAR_DATE ( 2023, 13, 2 ) ;
#234 = CARTESIAN_POINT ( 'NONE',  ( 1.100000000000000089, 1.347111479062088503E-16, 125.0000000000000000 ) ) ;
#235 = PRODUCT_DEFINITION ( 'NEZNÁMÝ', '', #255, #85 ) ;
#236 = ADVANCED_FACE ( 'NONE', ( #93 ), #245, .T. ) ;
#237 = FACE_OUTER_BOUND ( 'NONE', #45, .T. ) ;
#238 = ORIENTED_EDGE ( 'NONE', *, *, #98, .T. ) ;
#239 = ORGANIZATION ( 'NEURÈENÝ', 'NEURÈENÝ', '' ) ;
#240 = VERTEX_POINT ( 'NONE', #20 ) ;
#241 = ORIENTED_EDGE ( 'NONE', *, *, #6, .F. ) ;
#242 = DATE_AND_TIME ( #170, #121 ) ;
#243 = ORIENTED_EDGE ( 'NONE', *, *, #168, .F. ) ;
#244 = CIRCLE ( 'NONE', #61, 1.100000000000000089 ) ;
#245 = CYLINDRICAL_SURFACE ( 'NONE', #5, 1.100000000000000089 ) ;
#246 = PLANE ( 'NONE',  #192 ) ;
#247 = PERSON_AND_ORGANIZATION_ROLE ( 'design_owner' ) ;
#248 = APPROVAL_DATE_TIME ( #76, #106 ) ;
#249 = CARTESIAN_POINT ( 'NONE',  ( 0.000000000000000000, 0.000000000000000000, 2.000000000000000000 ) ) ;
#250 = AXIS2_PLACEMENT_3D ( 'NONE', #183, #165, #186 ) ;
#251 = LINE ( 'NONE', #234, #200 ) ;
#252 = CC_DESIGN_PERSON_AND_ORGANIZATION_ASSIGNMENT ( #77, #91, ( #255 ) ) ;
#253 = CALENDAR_DATE ( 2023, 13, 2 ) ;
#254 = AXIS2_PLACEMENT_3D ( 'NONE', #34, #232, #116 ) ;
#255 = PRODUCT_DEFINITION_FORMATION_WITH_SPECIFIED_SOURCE ( 'LIBOVOLNÝ', '', #177, .NOT_KNOWN. ) ;
ENDSEC;
END-ISO-10303-21;
