ISO-10303-21;
HEADER;
FILE_DESCRIPTION (( 'STEP AP203' ),
    '1' );
FILE_NAME ('4f5e.STEP',
    '2022-07-07T17:27:25',
    ( '' ),
    ( '' ),
    'SwSTEP 2.0',
    'SolidWorks 2019',
    '' );
FILE_SCHEMA (( 'CONFIG_CONTROL_DESIGN' ));
ENDSEC;

DATA;
#1 = PLANE ( 'NONE',  #24 ) ;
#2 = EDGE_CURVE ( 'NONE', #137, #201, #233, .T. ) ;
#3 = DIRECTION ( 'NONE',  ( 1.000000000000000000, 0.000000000000000000, 0.000000000000000000 ) ) ;
#4 = DIRECTION ( 'NONE',  ( 0.000000000000000000, 0.000000000000000000, 1.000000000000000000 ) ) ;
#5 = VECTOR ( 'NONE', #166, 1000.000000000000000 ) ;
#6 = PERSON_AND_ORGANIZATION ( #253, #162 ) ;
#7 = PRODUCT ( '4f5e', '4f5e', '', ( #100 ) ) ;
#8 = ORIENTED_EDGE ( 'NONE', *, *, #9, .F. ) ;
#9 = EDGE_CURVE ( 'NONE', #51, #176, #247, .T. ) ;
#10 = CALENDAR_DATE ( 2022, 7, 7 ) ;
#11 = AXIS2_PLACEMENT_3D ( 'NONE', #54, #37, #134 ) ;
#12 = APPROVAL_DATE_TIME ( #52, #179 ) ;
#13 = CARTESIAN_POINT ( 'NONE',  ( 0.000000000000000000, 0.000000000000000000, 205.0000000000000284 ) ) ;
#14 = EDGE_CURVE ( 'NONE', #185, #28, #255, .T. ) ;
#15 = LINE ( 'NONE', #210, #150 ) ;
#16 = CYLINDRICAL_SURFACE ( 'NONE', #159, 8.000000000000000000 ) ;
#17 = ORIENTED_EDGE ( 'NONE', *, *, #226, .F. ) ;
#18 = AXIS2_PLACEMENT_3D ( 'NONE', #130, #136, #19 ) ;
#19 = DIRECTION ( 'NONE',  ( -1.000000000000000000, 0.000000000000000000, 0.000000000000000000 ) ) ;
#20 =( GEOMETRIC_REPRESENTATION_CONTEXT ( 3 ) GLOBAL_UNCERTAINTY_ASSIGNED_CONTEXT ( ( #177 ) ) GLOBAL_UNIT_ASSIGNED_CONTEXT ( ( #218, #44, #103 ) ) REPRESENTATION_CONTEXT ( 'NONE', 'WORKASPACE' ) );
#21 = ORIENTED_EDGE ( 'NONE', *, *, #47, .F. ) ;
#22 = CIRCLE ( 'NONE', #88, 5.000000000000000000 ) ;
#23 = CARTESIAN_POINT ( 'NONE',  ( 0.000000000000000000, 0.000000000000000000, 0.000000000000000000 ) ) ;
#24 = AXIS2_PLACEMENT_3D ( 'NONE', #120, #101, #237 ) ;
#25 = ORIENTED_EDGE ( 'NONE', *, *, #127, .F. ) ;
#26 = APPROVAL_ROLE ( '' ) ;
#27 = CARTESIAN_POINT ( 'NONE',  ( 0.000000000000000000, 0.000000000000000000, 5.000000000000000000 ) ) ;
#28 = VERTEX_POINT ( 'NONE', #111 ) ;
#29 = PERSON_AND_ORGANIZATION ( #253, #162 ) ;
#30 = CIRCLE ( 'NONE', #79, 8.000000000000000000 ) ;
#31 = PERSON_AND_ORGANIZATION_ROLE ( 'design_owner' ) ;
#32 = LOCAL_TIME ( 19, 27, 25.00000000000000000, #161 ) ;
#33 = APPROVAL_ROLE ( '' ) ;
#34 = AXIS2_PLACEMENT_3D ( 'NONE', #132, #248, #190 ) ;
#35 = ADVANCED_FACE ( 'NONE', ( #252 ), #16, .T. ) ;
#36 = ORIENTED_EDGE ( 'NONE', *, *, #117, .F. ) ;
#37 = DIRECTION ( 'NONE',  ( -0.000000000000000000, -0.000000000000000000, -1.000000000000000000 ) ) ;
#38 = APPLICATION_CONTEXT ( 'configuration controlled 3d designs of mechanical parts and assemblies' ) ;
#39 = CYLINDRICAL_SURFACE ( 'NONE', #18, 8.000000000000000000 ) ;
#40 = DIRECTION ( 'NONE',  ( -0.000000000000000000, -0.000000000000000000, -1.000000000000000000 ) ) ;
#41 = VERTEX_POINT ( 'NONE', #116 ) ;
#42 = DIRECTION ( 'NONE',  ( 1.000000000000000000, 0.000000000000000000, 0.000000000000000000 ) ) ;
#43 = CC_DESIGN_PERSON_AND_ORGANIZATION_ASSIGNMENT ( #165, #31, ( #7 ) ) ;
#44 =( NAMED_UNIT ( * ) PLANE_ANGLE_UNIT ( ) SI_UNIT ( $, .RADIAN. ) );
#45 = APPLICATION_PROTOCOL_DEFINITION ( 'international standard', 'config_control_design', 1994, #234 ) ;
#46 = ORIENTED_EDGE ( 'NONE', *, *, #2, .F. ) ;
#47 = EDGE_CURVE ( 'NONE', #28, #137, #171, .T. ) ;
#48 = CALENDAR_DATE ( 2022, 7, 7 ) ;
#49 = DESIGN_CONTEXT ( 'detailed design', #38, 'design' ) ;
#50 = COORDINATED_UNIVERSAL_TIME_OFFSET ( 1, 0, .AHEAD. ) ;
#51 = VERTEX_POINT ( 'NONE', #95 ) ;
#52 = DATE_AND_TIME ( #67, #113 ) ;
#53 = DIRECTION ( 'NONE',  ( -1.000000000000000000, 0.000000000000000000, 0.000000000000000000 ) ) ;
#54 = CARTESIAN_POINT ( 'NONE',  ( 0.000000000000000000, 0.000000000000000000, 205.0000000000000284 ) ) ;
#55 = DIRECTION ( 'NONE',  ( 1.000000000000000000, 0.000000000000000000, 0.000000000000000000 ) ) ;
#56 = EDGE_CURVE ( 'NONE', #51, #158, #243, .T. ) ;
#57 = DIRECTION ( 'NONE',  ( 0.000000000000000000, 0.000000000000000000, 1.000000000000000000 ) ) ;
#58 = ORIENTED_EDGE ( 'NONE', *, *, #14, .F. ) ;
#59 = PRODUCT_RELATED_PRODUCT_CATEGORY ( 'detail', '', ( #7 ) ) ;
#60 = DIRECTION ( 'NONE',  ( 0.000000000000000000, 0.000000000000000000, 1.000000000000000000 ) ) ;
#61 = AXIS2_PLACEMENT_3D ( 'NONE', #27, #175, #172 ) ;
#62 = CARTESIAN_POINT ( 'NONE',  ( 8.000000000000000000, 9.797174393178825657E-16, 5.000000000000000000 ) ) ;
#63 = CARTESIAN_POINT ( 'NONE',  ( 0.000000000000000000, 0.000000000000000000, 205.0000000000000284 ) ) ;
#64 = DIRECTION ( 'NONE',  ( 0.000000000000000000, 0.000000000000000000, 1.000000000000000000 ) ) ;
#65 = EDGE_LOOP ( 'NONE', ( #8, #154, #229, #249 ) ) ;
#66 = EDGE_CURVE ( 'NONE', #176, #41, #15, .T. ) ;
#67 = CALENDAR_DATE ( 2022, 7, 7 ) ;
#68 = SECURITY_CLASSIFICATION_LEVEL ( 'unclassified' ) ;
#69 = EDGE_LOOP ( 'NONE', ( #99, #143 ) ) ;
#70 = CC_DESIGN_DATE_AND_TIME_ASSIGNMENT ( #242, #241, ( #186 ) ) ;
#71 = AXIS2_PLACEMENT_3D ( 'NONE', #200, #60, #236 ) ;
#72 = PERSON_AND_ORGANIZATION ( #253, #162 ) ;
#73 = FACE_OUTER_BOUND ( 'NONE', #152, .T. ) ;
#74 = CYLINDRICAL_SURFACE ( 'NONE', #11, 5.000000000000000000 ) ;
#75 = PLANE ( 'NONE',  #121 ) ;
#76 = ADVANCED_FACE ( 'NONE', ( #73 ), #212, .T. ) ;
#77 = DIRECTION ( 'NONE',  ( 1.000000000000000000, 0.000000000000000000, -0.000000000000000000 ) ) ;
#78 = ADVANCED_FACE ( 'NONE', ( #114 ), #39, .T. ) ;
#79 = AXIS2_PLACEMENT_3D ( 'NONE', #139, #84, #125 ) ;
#80 = APPROVAL ( #129, 'NEURÈENÝ' ) ;
#81 = APPROVAL_PERSON_ORGANIZATION ( #239, #80, #206 ) ;
#82 = CARTESIAN_POINT ( 'NONE',  ( 8.000000000000000000, 9.797174393178825657E-16, 5.000000000000000000 ) ) ;
#83 = ORIENTED_EDGE ( 'NONE', *, *, #173, .F. ) ;
#84 = DIRECTION ( 'NONE',  ( 0.000000000000000000, 0.000000000000000000, 1.000000000000000000 ) ) ;
#85 = ADVANCED_FACE ( 'NONE', ( #209 ), #74, .T. ) ;
#86 = APPROVAL_DATE_TIME ( #183, #80 ) ;
#87 = PRODUCT_DEFINITION_SHAPE ( 'NONE', 'NONE',  #217 ) ;
#88 = AXIS2_PLACEMENT_3D ( 'NONE', #63, #4, #195 ) ;
#89 = ADVANCED_FACE ( 'NONE', ( #188, #96 ), #75, .T. ) ;
#90 = APPROVAL_DATE_TIME ( #144, #170 ) ;
#91 = AXIS2_PLACEMENT_3D ( 'NONE', #93, #187, #55 ) ;
#92 = PERSON_AND_ORGANIZATION_ROLE ( 'classification_officer' ) ;
#93 = CARTESIAN_POINT ( 'NONE',  ( 0.000000000000000000, 0.000000000000000000, 5.000000000000000000 ) ) ;
#94 = EDGE_LOOP ( 'NONE', ( #36, #97 ) ) ;
#95 = CARTESIAN_POINT ( 'NONE',  ( 5.000000000000000000, 6.123233995736766282E-16, 205.0000000000000284 ) ) ;
#96 = FACE_OUTER_BOUND ( 'NONE', #168, .T. ) ;
#97 = ORIENTED_EDGE ( 'NONE', *, *, #189, .F. ) ;
#98 = CARTESIAN_POINT ( 'NONE',  ( 5.000000000000000000, 6.123233995736766282E-16, 205.0000000000000284 ) ) ;
#99 = ORIENTED_EDGE ( 'NONE', *, *, #226, .T. ) ;
#100 = MECHANICAL_CONTEXT ( 'NONE', #234, 'mechanical' ) ;
#101 = DIRECTION ( 'NONE',  ( 0.000000000000000000, 0.000000000000000000, 1.000000000000000000 ) ) ;
#102 = APPROVAL_PERSON_ORGANIZATION ( #72, #170, #26 ) ;
#103 =( NAMED_UNIT ( * ) SI_UNIT ( $, .STERADIAN. ) SOLID_ANGLE_UNIT ( ) );
#104 = CARTESIAN_POINT ( 'NONE',  ( 8.000000000000000000, 9.797174393178825657E-16, 0.000000000000000000 ) ) ;
#105 = EDGE_LOOP ( 'NONE', ( #46, #110 ) ) ;
#106 = CC_DESIGN_APPROVAL ( #80, ( #196 ) ) ;
#107 = ORIENTED_EDGE ( 'NONE', *, *, #66, .T. ) ;
#108 = PERSON_AND_ORGANIZATION_ROLE ( 'creator' ) ;
#109 = PERSON_AND_ORGANIZATION_ROLE ( 'design_supplier' ) ;
#110 = ORIENTED_EDGE ( 'NONE', *, *, #135, .F. ) ;
#111 = CARTESIAN_POINT ( 'NONE',  ( -8.000000000000000000, 0.000000000000000000, 5.000000000000000000 ) ) ;
#112 = VECTOR ( 'NONE', #141, 1000.000000000000000 ) ;
#113 = LOCAL_TIME ( 19, 27, 25.00000000000000000, #50 ) ;
#114 = FACE_OUTER_BOUND ( 'NONE', #131, .T. ) ;
#115 = DIRECTION ( 'NONE',  ( -0.000000000000000000, -0.000000000000000000, -1.000000000000000000 ) ) ;
#116 = CARTESIAN_POINT ( 'NONE',  ( -5.000000000000000000, 0.000000000000000000, 5.000000000000000000 ) ) ;
#117 = EDGE_CURVE ( 'NONE', #41, #158, #203, .T. ) ;
#118 = CARTESIAN_POINT ( 'NONE',  ( 5.000000000000000000, 6.123233995736766282E-16, 5.000000000000000000 ) ) ;
#119 = AXIS2_PLACEMENT_3D ( 'NONE', #23, #174, #3 ) ;
#120 = CARTESIAN_POINT ( 'NONE',  ( 0.000000000000000000, 0.000000000000000000, 0.000000000000000000 ) ) ;
#121 = AXIS2_PLACEMENT_3D ( 'NONE', #169, #250, #77 ) ;
#122 = CC_DESIGN_DATE_AND_TIME_ASSIGNMENT ( #126, #178, ( #217 ) ) ;
#123 = LINE ( 'NONE', #82, #112 ) ;
#124 = ADVANCED_BREP_SHAPE_REPRESENTATION ( '4f5e', ( #221, #119 ), #20 ) ;
#125 = DIRECTION ( 'NONE',  ( 1.000000000000000000, 0.000000000000000000, 0.000000000000000000 ) ) ;
#126 = DATE_AND_TIME ( #48, #205 ) ;
#127 = EDGE_CURVE ( 'NONE', #28, #185, #191, .T. ) ;
#128 = COORDINATED_UNIVERSAL_TIME_OFFSET ( 1, 0, .AHEAD. ) ;
#129 = APPROVAL_STATUS ( 'not_yet_approved' ) ;
#130 = CARTESIAN_POINT ( 'NONE',  ( 0.000000000000000000, 0.000000000000000000, 5.000000000000000000 ) ) ;
#131 = EDGE_LOOP ( 'NONE', ( #83, #25, #219, #197 ) ) ;
#132 = CARTESIAN_POINT ( 'NONE',  ( 0.000000000000000000, 0.000000000000000000, 0.000000000000000000 ) ) ;
#133 = CIRCLE ( 'NONE', #61, 5.000000000000000000 ) ;
#134 = DIRECTION ( 'NONE',  ( -1.000000000000000000, 0.000000000000000000, 0.000000000000000000 ) ) ;
#135 = EDGE_CURVE ( 'NONE', #201, #137, #30, .T. ) ;
#136 = DIRECTION ( 'NONE',  ( -0.000000000000000000, -0.000000000000000000, -1.000000000000000000 ) ) ;
#137 = VERTEX_POINT ( 'NONE', #142 ) ;
#138 = LOCAL_TIME ( 19, 27, 25.00000000000000000, #147 ) ;
#139 = CARTESIAN_POINT ( 'NONE',  ( 0.000000000000000000, 0.000000000000000000, 0.000000000000000000 ) ) ;
#140 = DIRECTION ( 'NONE',  ( 1.000000000000000000, 0.000000000000000000, -0.000000000000000000 ) ) ;
#141 = DIRECTION ( 'NONE',  ( -0.000000000000000000, -0.000000000000000000, -1.000000000000000000 ) ) ;
#142 = CARTESIAN_POINT ( 'NONE',  ( -8.000000000000000000, 0.000000000000000000, 0.000000000000000000 ) ) ;
#143 = ORIENTED_EDGE ( 'NONE', *, *, #9, .T. ) ;
#144 = DATE_AND_TIME ( #208, #138 ) ;
#145 = APPROVAL_STATUS ( 'not_yet_approved' ) ;
#146 = LOCAL_TIME ( 19, 27, 25.00000000000000000, #180 ) ;
#147 = COORDINATED_UNIVERSAL_TIME_OFFSET ( 1, 0, .AHEAD. ) ;
#148 = CC_DESIGN_PERSON_AND_ORGANIZATION_ASSIGNMENT ( #6, #109, ( #196 ) ) ;
#149 = ORIENTED_EDGE ( 'NONE', *, *, #173, .T. ) ;
#150 = VECTOR ( 'NONE', #40, 1000.000000000000000 ) ;
#151 = ORIENTED_EDGE ( 'NONE', *, *, #56, .F. ) ;
#152 = EDGE_LOOP ( 'NONE', ( #151, #17, #107, #222 ) ) ;
#153 = CARTESIAN_POINT ( 'NONE',  ( 0.000000000000000000, 0.000000000000000000, 5.000000000000000000 ) ) ;
#154 = ORIENTED_EDGE ( 'NONE', *, *, #56, .T. ) ;
#155 = AXIS2_PLACEMENT_3D ( 'NONE', #224, #228, #53 ) ;
#156 = DIRECTION ( 'NONE',  ( 0.000000000000000000, 0.000000000000000000, 1.000000000000000000 ) ) ;
#157 = CARTESIAN_POINT ( 'NONE',  ( 0.000000000000000000, 0.000000000000000000, 205.0000000000000284 ) ) ;
#158 = VERTEX_POINT ( 'NONE', #118 ) ;
#159 = AXIS2_PLACEMENT_3D ( 'NONE', #153, #115, #213 ) ;
#160 = FACE_OUTER_BOUND ( 'NONE', #105, .T. ) ;
#161 = COORDINATED_UNIVERSAL_TIME_OFFSET ( 1, 0, .AHEAD. ) ;
#162 = ORGANIZATION ( 'NEURÈENÝ', 'NEURÈENÝ', '' ) ;
#163 = PERSON_AND_ORGANIZATION ( #253, #162 ) ;
#164 = APPROVAL_STATUS ( 'not_yet_approved' ) ;
#165 = PERSON_AND_ORGANIZATION ( #253, #162 ) ;
#166 = DIRECTION ( 'NONE',  ( -0.000000000000000000, -0.000000000000000000, -1.000000000000000000 ) ) ;
#167 = DIRECTION ( 'NONE',  ( -0.000000000000000000, -0.000000000000000000, -1.000000000000000000 ) ) ;
#168 = EDGE_LOOP ( 'NONE', ( #231, #214 ) ) ;
#169 = CARTESIAN_POINT ( 'NONE',  ( 0.000000000000000000, 0.000000000000000000, 5.000000000000000000 ) ) ;
#170 = APPROVAL ( #145, 'NEURÈENÝ' ) ;
#171 = LINE ( 'NONE', #246, #5 ) ;
#172 = DIRECTION ( 'NONE',  ( 1.000000000000000000, 0.000000000000000000, 0.000000000000000000 ) ) ;
#173 = EDGE_CURVE ( 'NONE', #185, #201, #123, .T. ) ;
#174 = DIRECTION ( 'NONE',  ( 0.000000000000000000, 0.000000000000000000, 1.000000000000000000 ) ) ;
#175 = DIRECTION ( 'NONE',  ( 0.000000000000000000, 0.000000000000000000, 1.000000000000000000 ) ) ;
#176 = VERTEX_POINT ( 'NONE', #235 ) ;
#177 = UNCERTAINTY_MEASURE_WITH_UNIT (LENGTH_MEASURE( 1.000000000000000082E-05 ), #218, 'distance_accuracy_value', 'NONE');
#178 = DATE_TIME_ROLE ( 'creation_date' ) ;
#179 = APPROVAL ( #164, 'NEURÈENÝ' ) ;
#180 = COORDINATED_UNIVERSAL_TIME_OFFSET ( 1, 0, .AHEAD. ) ;
#181 = APPROVAL_PERSON_ORGANIZATION ( #163, #179, #33 ) ;
#182 = PERSON_AND_ORGANIZATION ( #253, #162 ) ;
#183 = DATE_AND_TIME ( #240, #146 ) ;
#184 = EDGE_LOOP ( 'NONE', ( #58, #149, #244, #21 ) ) ;
#185 = VERTEX_POINT ( 'NONE', #62 ) ;
#186 = SECURITY_CLASSIFICATION ( '', '', #68 ) ;
#187 = DIRECTION ( 'NONE',  ( 0.000000000000000000, 0.000000000000000000, 1.000000000000000000 ) ) ;
#188 = FACE_BOUND ( 'NONE', #94, .T. ) ;
#189 = EDGE_CURVE ( 'NONE', #158, #41, #133, .T. ) ;
#190 = DIRECTION ( 'NONE',  ( 1.000000000000000000, 0.000000000000000000, 0.000000000000000000 ) ) ;
#191 = CIRCLE ( 'NONE', #71, 8.000000000000000000 ) ;
#192 = CC_DESIGN_APPROVAL ( #179, ( #217 ) ) ;
#193 = CARTESIAN_POINT ( 'NONE',  ( 0.000000000000000000, 0.000000000000000000, 5.000000000000000000 ) ) ;
#194 = CLOSED_SHELL ( 'NONE', ( #85, #35, #78, #89, #198, #76, #245 ) ) ;
#195 = DIRECTION ( 'NONE',  ( 1.000000000000000000, 0.000000000000000000, 0.000000000000000000 ) ) ;
#196 = PRODUCT_DEFINITION_FORMATION_WITH_SPECIFIED_SOURCE ( 'LIBOVOLNÝ', '', #7, .NOT_KNOWN. ) ;
#197 = ORIENTED_EDGE ( 'NONE', *, *, #2, .T. ) ;
#198 = ADVANCED_FACE ( 'NONE', ( #160 ), #1, .F. ) ;
#199 = PERSON_AND_ORGANIZATION_ROLE ( 'creator' ) ;
#200 = CARTESIAN_POINT ( 'NONE',  ( 0.000000000000000000, 0.000000000000000000, 5.000000000000000000 ) ) ;
#201 = VERTEX_POINT ( 'NONE', #104 ) ;
#202 = APPLICATION_PROTOCOL_DEFINITION ( 'international standard', 'config_control_design', 1994, #38 ) ;
#203 = CIRCLE ( 'NONE', #238, 5.000000000000000000 ) ;
#204 = PERSON_AND_ORGANIZATION ( #253, #162 ) ;
#205 = LOCAL_TIME ( 19, 27, 25.00000000000000000, #128 ) ;
#206 = APPROVAL_ROLE ( '' ) ;
#207 = AXIS2_PLACEMENT_3D ( 'NONE', #13, #57, #225 ) ;
#208 = CALENDAR_DATE ( 2022, 7, 7 ) ;
#209 = FACE_OUTER_BOUND ( 'NONE', #65, .T. ) ;
#210 = CARTESIAN_POINT ( 'NONE',  ( -5.000000000000000000, 0.000000000000000000, 205.0000000000000284 ) ) ;
#211 = CC_DESIGN_PERSON_AND_ORGANIZATION_ASSIGNMENT ( #182, #92, ( #186 ) ) ;
#212 = CYLINDRICAL_SURFACE ( 'NONE', #155, 5.000000000000000000 ) ;
#213 = DIRECTION ( 'NONE',  ( -1.000000000000000000, 0.000000000000000000, 0.000000000000000000 ) ) ;
#214 = ORIENTED_EDGE ( 'NONE', *, *, #14, .T. ) ;
#215 = CC_DESIGN_APPROVAL ( #170, ( #186 ) ) ;
#216 = PLANE ( 'NONE',  #227 ) ;
#217 = PRODUCT_DEFINITION ( 'NEZNÁMÝ', '', #196, #49 ) ;
#218 =( LENGTH_UNIT ( ) NAMED_UNIT ( * ) SI_UNIT ( .MILLI., .METRE. ) );
#219 = ORIENTED_EDGE ( 'NONE', *, *, #47, .T. ) ;
#220 = CC_DESIGN_PERSON_AND_ORGANIZATION_ASSIGNMENT ( #204, #108, ( #196 ) ) ;
#221 = MANIFOLD_SOLID_BREP ( 'Pøidat vysunutím3', #194 ) ;
#222 = ORIENTED_EDGE ( 'NONE', *, *, #117, .T. ) ;
#223 = SHAPE_DEFINITION_REPRESENTATION ( #87, #124 ) ;
#224 = CARTESIAN_POINT ( 'NONE',  ( 0.000000000000000000, 0.000000000000000000, 205.0000000000000284 ) ) ;
#225 = DIRECTION ( 'NONE',  ( 1.000000000000000000, 0.000000000000000000, 0.000000000000000000 ) ) ;
#226 = EDGE_CURVE ( 'NONE', #176, #51, #22, .T. ) ;
#227 = AXIS2_PLACEMENT_3D ( 'NONE', #157, #64, #140 ) ;
#228 = DIRECTION ( 'NONE',  ( -0.000000000000000000, -0.000000000000000000, -1.000000000000000000 ) ) ;
#229 = ORIENTED_EDGE ( 'NONE', *, *, #189, .T. ) ;
#230 = VECTOR ( 'NONE', #167, 1000.000000000000000 ) ;
#231 = ORIENTED_EDGE ( 'NONE', *, *, #127, .T. ) ;
#232 = CC_DESIGN_SECURITY_CLASSIFICATION ( #186, ( #196 ) ) ;
#233 = CIRCLE ( 'NONE', #34, 8.000000000000000000 ) ;
#234 = APPLICATION_CONTEXT ( 'configuration controlled 3d designs of mechanical parts and assemblies' ) ;
#235 = CARTESIAN_POINT ( 'NONE',  ( -5.000000000000000000, 0.000000000000000000, 205.0000000000000284 ) ) ;
#236 = DIRECTION ( 'NONE',  ( 1.000000000000000000, 0.000000000000000000, 0.000000000000000000 ) ) ;
#237 = DIRECTION ( 'NONE',  ( 1.000000000000000000, 0.000000000000000000, -0.000000000000000000 ) ) ;
#238 = AXIS2_PLACEMENT_3D ( 'NONE', #193, #156, #42 ) ;
#239 = PERSON_AND_ORGANIZATION ( #253, #162 ) ;
#240 = CALENDAR_DATE ( 2022, 7, 7 ) ;
#241 = DATE_TIME_ROLE ( 'classification_date' ) ;
#242 = DATE_AND_TIME ( #10, #32 ) ;
#243 = LINE ( 'NONE', #98, #230 ) ;
#244 = ORIENTED_EDGE ( 'NONE', *, *, #135, .T. ) ;
#245 = ADVANCED_FACE ( 'NONE', ( #254 ), #216, .T. ) ;
#246 = CARTESIAN_POINT ( 'NONE',  ( -8.000000000000000000, 0.000000000000000000, 5.000000000000000000 ) ) ;
#247 = CIRCLE ( 'NONE', #207, 5.000000000000000000 ) ;
#248 = DIRECTION ( 'NONE',  ( 0.000000000000000000, 0.000000000000000000, 1.000000000000000000 ) ) ;
#249 = ORIENTED_EDGE ( 'NONE', *, *, #66, .F. ) ;
#250 = DIRECTION ( 'NONE',  ( 0.000000000000000000, 0.000000000000000000, 1.000000000000000000 ) ) ;
#251 = CC_DESIGN_PERSON_AND_ORGANIZATION_ASSIGNMENT ( #29, #199, ( #217 ) ) ;
#252 = FACE_OUTER_BOUND ( 'NONE', #184, .T. ) ;
#253 = PERSON ( 'NEURÈENÝ', 'NEURÈENÝ', 'NEURÈENÝ', ('NEURÈENÝ'), ('NEURÈENÝ'), ('NEURÈENÝ') ) ;
#254 = FACE_OUTER_BOUND ( 'NONE', #69, .T. ) ;
#255 = CIRCLE ( 'NONE', #91, 8.000000000000000000 ) ;
ENDSEC;
END-ISO-10303-21;
